Song name
# A B C D E F G H I J K L M N O P Q R S T U V W X Y Z

Austin Tv - Les Choses Sont Bizarres tab

Help us improve GuitareTab! Take a short survey!
__________________________________________________________________________
seccion 1

gu1 (00:06)
e|--------------------|--------------------|--------------------|
b|-7-7-7-7-10-10-9-9--|-7-7-7-7-10-10-9-9--|-7-7-7-7-10-10-9-9--|
g|--9-9-9-9--9--9-9-9-|--9-9-9-9--9--9-9-9-|--9-9-9-9--9--9-9-9-|
d|--------------------|--------------------|--------------------|
a|--------------------|--------------------|--------------------|
e|--------------------|--------------------|--------------------|


gu2 (00:18)
e|-12----12----12----12----|-12---12---12---12---|-9---9---9---9---|
b|----10----10----10----10-|----9----9----9----9-|---7---7---7---7-|
g|-------------------------|---------------------|-----------------|
d|-------------------------|---------------------|-----------------|
a|-------------------------|---------------------|-----------------|
e|-------------------------|---------------------|-----------------|


______________________________________________________________________
seccion 2

gu1 (00:34)
e|----------------------------------------------------|
b|-7-7-7-7-7-7-7-7-7-7-7-7-7-7-7-7-7-7-7-7-7-7-7-7-7--|
g|--9-9-9-9-9-9-9-9-9-9-9-9-9-9-9-9-9-9-9-9-9-9-9-9-9-|
d|----------------------------------------------------|
a|----------------------------------------------------|
e|----------------------------------------------------|


gu2 (00:34)
e|12-12-12-12-12-12-12-12-12-12-12-12-12-12-12-12-12-12-12-12-12-12-12-12--|
b|--10-10-10-10-10-10-10-10-10-10-10-10-10-10-10-10-10-10-10-10-10-10-10-10|
g|-------------------------------------------------------------------------|
d|-------------------------------------------------------------------------|
a|-------------------------------------------------------------------------|
e|-------------------------------------------------------------------------|


___________________________________________________________________________
seccion 3

gu1 (00:43)
e|-----------------------------------------|----12-------------|
b|-9-10-9-10-9-10-9-10-9-10-9-10-9-10-9-10-|-10----10-9-7-9-7--|
g|-----------------------------------------|-------------------|
d|-----------------------------------------|-------------------|
a|-----------------------------------------|-------------------|
e|-----------------------------------------|-------------------|

gu1
e|----12--------------|-----------------------------------------|
b|-10----10-9-7---7-9-|-9-10-9-10-9-10-9-10-9-10-9-10-9-10-9-10-|
g|--------------9-----|-----------------------------------------|
d|--------------------|-----------------------------------------|
a|--------------------|-----------------------------------------|
e|--------------------|-----------------------------------------|

gu1
e|---12------------|----12---------|---------------------|-----------------|
b|10----10-9-7-9-7-|-10----10-9-7--|7---7---7---10---9---|7---7---10---9---|
g|-----------------|--------------9|--9---9---9----9---9-|--9---9----9---9-|
d|-----------------|---------------|---------------------|-----------------|
a|-----------------|---------------|---------------------|-----------------|
e|-----------------|---------------|---------------------|-----------------|
                                                              ^   tres veces   ^

gu2 (00:43)
e|-12----12----12----12----|-12---12---12---12---|-9---9---9---9---|
b|----10----10----10----10-|----9----9----9----9-|---7---7---7---7-|
g|-------------------------|---------------------|-----------------|
d|-------------------------|---------------------|-----------------|
a|-------------------------|---------------------|-----------------|
e|-------------------------|---------------------|-----------------|


________________________________________________________________________________
seccion 4

gu1 (01:17)
e|-5-5-5-5-5-5-5-5-5-5-5-5-5-5-5-5-5-----------------|
b|-5-5-5-5-5-5-5-5-3-3-3-3-3-3-3-3-5-----------------|
g|---------------------------------------------------|
d|---------------------------------------------------|
a|---------------------------------------------------|
e|---------------------------------------------------|

gu1
e|-5-5-5-5-5-5-5-5-5-5-5-5-5-5-5-5-|-5-5-5-5-5-5-5-5-5-5-5-5-5-5-5-5--|
b|-3-3-3-3-3-3-3-3-5-5-5-5-5-5-5-5-|-3-3-3-3-3-3-3-3-5-5-5-5-5-5-5-5--|
g|---------------------------------|----------------------------------|
d|---------------------------------|----------------------------------|
a|---------------------------------|----------------------------------|
e|---------------------------------|----------------------------------|


gu2 (01:17)
e|-5-5-5-5-5-5-5-5-5-5-5-5-5-5-5-5-5---5---5---5-5---|
b|--5-5-5-5-5-5-5-5-3-3-3-3-3-3-3-3--5---5---5--5-5--|
g|---------------------------------------------------|
d|---------------------------------------------------|
a|---------------------------------------------------|
e|---------------------------------------------------|

gu2
e|-5-5-5-5-5-5-5-5-5-5-5-5-5-5-5-5--|-5---5---5---5---5---5---5---5---|
b|--3-3-3-3-3-3-3-3-5-5-5-5-5-5-5-5-|---3---3---3---3---5---5---5---5-|
g|----------------------------------|---------------------------------|
d|----------------------------------|---------------------------------|
a|----------------------------------|---------------------------------|
e|----------------------------------|---------------------------------|


_________________________________________________________________________________
seccion 5

gu1 (01:48)
e|---------------------------------|---------------------------------|
b|-----------------7---------------|-----------------7---------------|
g|-9-------------------------------|-9-------------------------------|
d|---------------------------------|---------------------------------|
a|---------------------------------|---------------------------------|
e|---------------------------------|---------------------------------|

gu1
e|---------------------------------|----------------------|
b|---------7---------------7-------|---7---7--7-7-7-7-7-7-|
g|-9---------------9---------------|-9---9---9-9-9-9-9-9--|
d|---------------------------------|----------------------|
a|---------------------------------|----------------------|
e|---------------------------------|----------------------|


gu2 (01:48)
e|-5---5---5---5---7---7---7---7---|-5---5---5---5---7---7---7---7---|
b|---5---5---5---5---7---7---7---7-|---5---5---5---5---7---7---7---7-|
g|---------------------------------|---------------------------------|
d|---------------------------------|---------------------------------|
a|---------------------------------|---------------------------------|
e|---------------------------------|---------------------------------|

gu2
e|-5---5---5---5---7---7---7---7---|-5---5---5-5-7-7-7-7--|
b|---5---5---5---5---7---7---7---7-|---5---5--5-5-7-7-7-7-|
g|---------------------------------|----------------------|
d|---------------------------------|----------------------|
a|---------------------------------|----------------------|
e|---------------------------------|----------------------|


___________________________________________________________________________________
seccion 6

gu1 (02:10) toca lo mismo que en la seccion 1, solo que a veces cambia por esto:
e|--------------------|
b|-7-7-7-7-9-9-10-10--|
g|--9-9-9-9-9-9--9--9-|
d|--------------------|
a|--------------------|
e|--------------------|


gu2 (02:10) con distorcion
e|----|----------|----------|
b|----|----------|----------|
g|----|----------|----------|
d|-77-|-77-66-77-|-66-77-66-|
a|-77-|-77-66-77-|-66-77-66-|
e|-55-|-55-44-55-|-44-55-44-|
        ^se repite 4 veces^

___________________________________________________________________________________
seccion 7

gu1 (02:30) con distorcion
e|-------------------|--12-------------|------------------|----------------|
b|9-10-9-10-9-10-9-10|9----10-9-7------|--7-9-10-9-10-9-10|7--------7-9-10-|
g|-------------------|------------9-6--|9-----------------|--9-6---9-------|
d|-------------------|----------------9|------------------|------9---------|
a|-------------------|-----------------|------------------|----------------|
e|-------------------|-----------------|------------------|----------------|


gu2 (02:30) con distorcion
e|---------------------|
b|---------------------|
g|---------------------|
d|-666666666777777777--|
a|-666666666777777777--|
e|-444444444555555555--|


___________________________________________________________________________________
seccion final

gu1 (02:50) con distorcion en todas las barras
e|----------------------|------12------|---------------------|-----12------|
b|777777777-------------|-9-10----10-9-|7777777777-----------|9-10----10-9-|
g|---------999999888999-|--------------|----------9999999999-|-------------|
d|----------------------|--------------|---------------------|-------------|
a|----------------------|--------------|---------------------|-------------|
e|----------------------|--------------|---------------------|-------------|
        ^x 2^                 ^x 2^              ^x 2^              ^x 2^
gu1
e|----------------------|---------------|----------|-------------------|
b|-7777777777-----------|-7799101099999-|-910910-9-|-7-9-10-9-7-9-10-9-|
g|-----------9999999999-|---------------|----------|-------------------|
d|----------------------|---------------|----------|-------------------|
a|----------------------|---------------|----------|-------------------|
e|----------------------|---------------|----------|-------------------|
         ^x 2^                ^x 4^         ^x 2^
gu1                                    PM....................................
e|-----12------|----------------------|------------------------------------|
b|9-10----10-9-|-7777777777-----------|7777777--------77777777999910101010-|
g|-------------|-----------9999999999-|-------99998888---------------------|
d|-------------|----------------------|------------------------------------|
a|-------------|----------------------|------------------------------------|
e|-------------|----------------------|------------------------------------|
      ^x 2^              ^x 2^                        ^x 2^

gu1 (03:59)
e|----------------------------------------------------|
b|-7~--------7-9-10~-9-10-7~------------7~-9-10~--9~--|
g|----9-8-9~-----------------9-8-9~--8~---------------|
d|----------------------------------------------------|
a|----------------------------------------------------|
e|----------------------------------------------------|


Bueno, eso es todo, esta vez yo no saque la tablatura, pero si la traje para aqui, para 
se expandira un poc mas esta banda que se llama Austin tv, el tab original esta en 
y bueno, espero que lo disfruten.

Daniel_tv

www.austintv.org
Related for Les Choses Sont Bizarres tab