Song name
# A B C D E F G H I J K L M N O P Q R S T U V W X Y Z

Austin Tv - Ella No Me Conoce tab

Tabbed By :  me
e-mail: Ozzy543@hotmail.com

Tuning: LO normal G sol,D re,A la,E mi

Es facilísima está canción y psss suena bien, bueno, a mi me agrada, si quieren 
en msn psss es su problema.

G---------12------12---------12------12/11-----------11-----11-------11----11-|
D--9--9-------9-------9--9-------9-----------9---9-------9-----9--9-----9-----|
A-----------------------------------------------------------------------------|
E-----------------------------------------------------------------------------|

G---------------------------------------------------------------------|
D---------------------------------------------------------------------|
A--9--9-9--9--9--9--9--9-9-9-9-9-10-10-10--10-10-10-10-10-10-10-10-10-|
E---------------------------------------------------------------------|

Se repite un buen de veces hasta que cambia en 1:28

G--------------------------------------------------------------------------|
D--------------------------------------------------------------------------|
A--------------------------------------------------------------------------|
E--10-10-10-10-10-10-10-10-10-10-10-10-10-10-10-10-10-10-10-10-7-7-7-7-7-7-|

G-----------------------------------------------------------------------------|
D-----------------------------------------------------------------------------|
A-----------------------------------------------------------------------------|
E--7-7-7-7-7-7-7-7-7-7-7-7-7-7-10-10-10-10-10-10-10-10-10-10-10-10-10-10-10---|

G----------------------------------------------------------------------------|
D----------------------------------------------------------------------------|
A----------------------------------------------------------------------------|
E-10-10-10-10-10-12-12-12-12-12-12-12-12-12-12-12-12-12-12-12-12-12-12-12-12-|

G-----------------------------------------------------------------------------|
D-----------------------------------------------------------------------------|
A-----------------------------------------------------------------------------|
E--7777777777777-7-7-7-7-7-7-7-10-10-10-10-10-10-10-10-10-10-10-10-10-10-10---|

G----------------------------------------------------------------------------|
D----------------------------------------------------------------------------|
A----------------------------------------------------------------------------|
E-10-10-10-10-10-12-12-12-12-12-12-12-12-12-12-12-12-12-12-12-12-12-12-12-12-|

G-----------------------------------------------------------------------------|
D-----------------------------------------------------------------------------|
A-----------------------------------------------------------------------------|
E--7777777777777-7-7-7-7-7-7-7-10-10-10-10-10-10-10-10-10-10-10-10-10-10-10---|

G----------------------------------------------------------------------------|
D----------------------------------------------------------------------------|
A----------------------------------------------------------------------------|
E-10-10-10-10-10-12-12-12-12-12-12-12-12-12-12-12-12-12-12-12-12-12-12-12-12-|

G-----------------------------------------------------------------------------|
D-----------------------------------------------------------------------------|
A-----------------------------------------------------------------------------|
E--7777777777777-7-7-7-7-7-7-7-10-10-10-10-10-10-10-10-10-10-10-10-10-10-10---|

G----------------|
D----------------|
A----------------|
E-10-10-10-10-10-|

G---------12------12---------12------12/11-----------11-----11-------11----11-|
D--9--9-------9-------9--9-------9-----------9---9-------9-----9--9-----9-----|
A-----------------------------------------------------------------------------|
E-----------------------------------------------------------------------------|

G---------------------------------------------------------------------|
D---------------------------------------------------------------------|
A--9--9-9--9--9--9--9--9-9-9-9-9-10-10-10--10-10-10-10-10-10-10-10-10-|
E---------------------------------------------------------------------|

G---------12------12---------12------12/11-----------11-----11-------11----11-|
D--9--9-------9-------9--9-------9-----------9---9-------9-----9--9-----9-----|
A-----------------------------------------------------------------------------|
E-----------------------------------------------------------------------------|

G---------------------------------------------------------------------|
D---------------------------------------------------------------------|
A--9--9-9--9--9--9--9--9-9-9-9-9-10-10-10--10-10-10-10-10-10-10-10-10-|
E---------------------------------------------------------------------|

G---------12------12---------12------12/11-----------11-----11-------11----11-|
D--9--9-------9-------9--9-------9-----------9---9-------9-----9--9-----9-----|
A-----------------------------------------------------------------------------|
E-----------------------------------------------------------------------------|

G---------------------------------------------------------------------|
D---------------------------------------------------------------------|
A--9--9-9--9--9--9--9--9-9-9-9-9-10-10-10--10-10-10-10-10-10-10-10-10-|
E---------------------------------------------------------------------|

G---------12------12---------12------12/11-----------11-----11-------11----11-|
D--9--9-------9-------9--9-------9-----------9---9-------9-----9--9-----9-----|
A-----------------------------------------------------------------------------|
E-----------------------------------------------------------------------------|

G---------------------------------------------------------------------|
D---------------------------------------------------------------------|
A--9--9-9--9--9--9--9--9-9-9-9-9-10-10-10--10-10-10-10-10-10-10-10-10-|
E---------------------------------------------------------------------|

G---------12------12---------12------12/11-----------11-----11-------11----11-|
D--9--9-------9-------9--9-------9-----------9---9-------9-----9--9-----9-----|
A-----------------------------------------------------------------------------|
E-----------------------------------------------------------------------------|

G---------------------------------------------------------------------|
D---------------------------------------------------------------------|
A--9--9-9--9--9--9--9--9-9-9-9-9-10-10-10--10-10-10-10-10-10-10-10-10-|
E---------------------------------------------------------------------|

G---------12------12---------12------12/11-----------11-----11-------11----11-|
D--9--9-------9-------9--9-------9-----------9---9-------9-----9--9-----9-----|
A-----------------------------------------------------------------------------|
E-----------------------------------------------------------------------------|

G---------------------------------------------------------------------|
D---------------------------------------------------------------------|
A--9--9-9--9--9--9--9--9-9-9-9-9-10-10-10--10-10-10-10-10-10-10-10-10-|
E---------------------------------------------------------------------|

G---------12------12---------12------12/11-----------11-----11-------11----11-|
D--9--9-------9-------9--9-------9-----------9---9-------9-----9--9-----9-----|
A-----------------------------------------------------------------------------|
E-----------------------------------------------------------------------------|

G------------------------------------------------------------------------|
D------------------------------------------------------------------------|
A--9--9-9--9--9--9--9--9-9-9-9-9-10-10-10--10-10-10-10-10-10-10-10-10-5~-|
E------------------------------------------------------------------------|

| /  slide up
| \  slide down
| h  hammer-on
| p  pull-off
| ~  vibrato
| +  harmonic
| x  Mute note
Tap to rate this tab
# A B C D E F G H I J K L M N O P Q R S T U V W X Y Z