Song name
# A B C D E F G H I J K L M N O P Q R S T U V W X Y Z

Australian Crawl - Errol tab

Australian Crawl : Errol

The main bass riff behind the song
 F                                   G
e----------------------------------------------------------|
B----------------------------------------------------------|
G----------------------------------------------------------|
D-3-----3----3-----3---5-----5---5-----5---5--7--5---------|
A----5-3--------5-3-------7-5-------7-5--------------------|
E----------------------------------------------------------|

INTRO (and after the 2nd chorus)

e-----------------------------------------------------------------------|
B-----------------------------------------------------------------------|
G-----------------------------------------------------------------------|
D-----------------------------------------------------------------------|
A------/5---3---0---2-------------------/5---3---0---2------------------|
E-1---------------------3-3-------1-------------------------------------|

Guitar 1 chugs on muted power chords
Guitar 2 stabs on triads - listen to track for timing

F (D shape 5th Position - stab on high 3 strings)
Convict state It just don't rate

G (Bar Chord 3rd position- stab on high 3 strings)
He want to get higher

F
Apple Isle, the inbred smile

G
He's going to get by'a

F
His mother's hand He could not stand

G
He left for the islands

F
To fish and hunt He take a punt

G
The New Guinea Highlands



C      G Am  F               C              G            Am
Ohhh Errol,  I would give everything just to be like him

e----------------------------------------------------------------------------|
B----------------------------------------------------------------------------|
G----------------------------------------------------------------------------|
D----------------------------------------------------------------------------|
A--8-7--------------7---------------------3-3-3------------------------------|
E-------10--8--10-----------1-1-1--------------------3-3-3--------5-5--------|

     Oh...........  Err...ol          I would...      everthing     just to ...      like him


He had to go to Sirocco
He's sailin the high seas
Hollywood, Captain Blood
He's billing the Nazi's
Took a rebel stand Contraband
Coast of Mexico
He want to pounce Like an animal
To girls he just can't say no

Ohhh Errol, I would give everything just to be like him
Ohhh Errol, I would give everything just to be like him

He had them all Screamin for more
He play the wild scene
Ah scandalise, no compromise
He's down on his knees
Swashbuckling he was the King
The toast of Tinseltown
They build him up They took it all
And then they just cut him down

Ohhh Errol, I would give everything just to be like him
Ohhh Errol, I would give everything just to be like him

(Bridge bass bit)

e----------------------------------------------------------------------------------------|
B----------------------------------------------------------------------------------------|
G----------------------------------------------------------------------------------------|
D----------------------------------------------------------------------------------------|
A------------3---------------------3---------------------5--------------------5----------|
E--1--0--1-------------0--1--0--1-----------2--3--2--3-----------2--3--2--3---------3----|


e------------------------------------------------10--8------------8b---------12--------------|
B-------8---------5br---------------8p6----/10---------8br----6-----------------13-----------|
G---------------------------5--7---------------------------10-----------------------12-------|
D-----------------------7---------------------------------------------------------------14~--|
A--------------------------------------------------------------------------------------------|
E-1------------------------------------------------------------------------------------------|
                                                                                         
               Don't....





F G
Donít tell me itís true, I donít wanna hear about it
Donít tell me itís true, I donít wanna hear about it
Donít tell me itís true, I donít wanna hear about it
Donít tell me itís true, I donít wanna hear about it

Solo: over the chorus

e|--10b---B10r-8--10b-----13-12----------------------------------------------------------------|
B|---------------------------------13----------------------------------------------------------|
G|-------------------------------------12---10---9-----------------------5--7--(Whammy Dives)--|
D|---------------------------------------------------10---5--3--2-------/7---------------------|
A|------------------------------------------------------------------3--------------------------|
E|---------------------------------------------------------------------------------------------|


e|---------------------------------------------------15---------|
B|----------------------13-13-13----------15br-13------15br-13--|
G|------12-12-12--/14-------------------------------------------|
D|-/14----------------------------------------------------------|
A|--------------------------------------------------------------|
E|--------------------------------------------------------------|




Ohhh Errol, I would give everything just to be like him
Ohhh Errol, I would give everything just to be like him
Ohhh Errol, I would give everything just to be like him
Ohhh Errol, I would give everything just to be like him


        B  Bend
        R  Release
        /  Slide up
        \  Slide down
        H  Hammer-on
        P  Pull-off
        ~  Vibrato
        +  Harmonic
        x  Mute note
        .  Play note like a dot in standard notation
        ^  Ties two notes together
        (. Pause
Tap to rate this tab
 
# A B C D E F G H I J K L M N O P Q R S T U V W X Y Z