Australian Crawl - Downhearted tab

-----------------------------------------------------------------
SONG NAME - Downhearted
-----------------------------------------------------------------
BAND - Australian Crawl
-----------------------------------------------------------------

Tabbed by: adammcc47
Email: adammcc@internode.on.net

Tuning: standard

Intro

e|--12------10~--------------12-------10~----------------------------------------------|
B|-----13-------------------------13---------------------------------------------------|
G|--------------12b--12~------------------12Br--10--12b--12~---------------------------|
D|-------------------------------------------------------------------------------------|
A|-------------------------------------------------------------------------------------|
E|-------------------------------------------------------------------------------------|

Chorus

23 sec

e|---------------------------------------------------------------------------------------|
B|---------------------------------------------------------------------------------------|
G|---------------------------------------------------------------------------------------|
D|--7h8----------------7h8/10-------5---------------7-8----7--7h8/10---------5~----------|
A|---------------------------------------------------------------------------------------|
E|---------------------------------------------------------------------------------------|
           Downhearted....                    Really s.....

Fill 1

49 sec

e|--------------------------------------|
B|-------------------------/10----------|
G|---------------------10-----10--------|
D|---12-12-12p-10-----------------------|
A|-----------------12-------------------|
E|--------------------------------------|

Solo

e|--------------------------------------------------/12(echos with delay)-----|
B|----------------------------------------------------------------------------|
G|---12b--10-12---------------------------------------------------------------|
D|---------------10~----10--------------------/12~----------------------------|
A|---------------------------12--10-------------------------------------------|
E|-----------------------------------/13--13----------------------------------|



e|------------13br~-----------8b-------------------13--15--13--15/17~----------|
B|--13br--10----------------------------------/15------------------------------|
G|------------------7(piano)---------------------------------------------------|
D|-----------------------------------------------------------------------------|
A|-----------------------------------------------------------------------------|
E|-----------------------------------------------------------------------------|

Sax solo arranged for guitar

e|--------------------------------------------------------------------------------|
B|-------------------------------13---------13-13--13-13---15~--13----------------|
G|------10-10-----10-12--12/14-----14-12----------------------------14-12---------|
D|--/12---------------------------------------------------------------------------|
A|--------------------------------------------------------------------------------|
E|--------------------------------------------------------------------------------|


e|-------12h13p12--10----------------------8b~-10~----------------------------|
B|----------------------10-10---8----8--10------------------------------------|
G|--14----------------------------10------------------------------------------|
D|----------------------------------------------------------------------------|
A|----------------------------------------------------------------------------|
E|----------------------------------------------------------------------------|


Fill 2

2:04

e|---B9rp8-----8----B9rp8-----8----------------------------------------------|
B|---------10--------------10---10~------------------------------------------|
G|---------------------------------------------------------------------------|
D|---------------------------------------------------------------------------|
A|---------------------------------------------------------------------------|
E|---------------------------------------------------------------------------|

Outro

e|--7brb--\7-----12br--10---------------------------------/13----------------|
B|-------------------------13--------10-11-------/10--13---------------------|
G|----------------------------12~---------12---------------------------------|
D|---------------------------------------------------------------------------|
A|---------------------------------------------------------------------------|
E|---------------------------------------------------------------------------|


e|--15br--13--15--13--21b~~-------------------------------------------------|
B|--------------------------------------------------------------------------|
G|--------------------------------------------------------------------------|
D|--------------------------------------------------------------------------|
A|--------------------------------------------------------------------------|
E|--------------------------------------------------------------------------|


* 4-bar intro: |Dm    Am | C    Gm|

            Dm             Am                 C            Gm
* Verse 1   I LEFT MY HEART BACK IN THE ORIENT
            Dm             Am                 C            Gm
            DOWN ON BALI BAYS.
            Dm             Am                 C            Gm
            IT'S NOT THE WAY THAT I SHOULD FEEL,
            Dm             Am                              C    Gm     Am
            BUT IT'S THE WAY I'M GOING TO STAY

            Bb         Am
* Chorus    DOWNHEARTED.
            C                        Gm                         Am
            BROKEN DREAMS THAT NEVER REALLY STARTED, YEAH.
            Bb         Am
            DOWNHEARTED.
            C                        C            Gm
            BROKEN DREAMS THAT NEVER REALLY START.

            Dm             Am                 C            Gm
* Verse 2   IT SEEMS ALL WRONG BACK HERE AT HOME.
            Dm             Am                 C            Gm
            THERE'S NO END IN SIGHT.
            Dm             Am                 C            Gm
            SHOULD I BE MADE TO DRAG YOU THROUGH
            Dm             Am    C    Gm     Am
            THIS LOVER'S ENDLESS FIGHT.

* Repeat chorus

* 8-bar guitar solo chords:  |Dm  /  C   F|F  /  Am  C |
                                      |Dm  /  C   Gm|Gm  /  Am C |
                                      |Dm  /  C   F| F  /  Am  C |
                                      |Dm /   C   BbMaj7|/  /  /  /|

* 8-bar sax solo:  Chords Same as Verse

* Repeat chorus

* Verse 3   SOMETIMES I THINK THAT WE SHOULD STAY
            HAPPY ON THE FARM.
            I SOMETIMES THINK I'LL GIVE IT ALL AWAY,
            THIS LOVE AND ALL ITS CHARM.

* Chorus 2  DOWNHEARTED.
            BROKEN DREAMS THAT NEVER REALLY STARTED, YEAH.
            DOWNHEARTED.
            BROKEN DREAMS THAT NEVER REALLY STARTED, YEAH.
            DOWNHEARTED.
            BROKEN DREAMS THAT NEVER REALLY STARTED, YEAH.
            DOWNHEARTED.
            BROKEN DREAMS THAT NEVER REALLY START.

End on Guitar Solo Chords

| /  slide up
| \  slide down
| h  hammer-on
| p  pull-off
| ~  vibrato
| +  harmonic
| x  Mute note
Tap to rate this tab
 
# A B C D E F G H I J K L M N O P Q R S T U V W X Y Z