Song name
# A B C D E F G H I J K L M N O P Q R S T U V W X Y Z

Austrian Death Machine - Rubber Baby Buggy Bumpers tab

      Austrian Death Machine - Rubber Baby Buggy Bumpers
      From The Total Brutal Album
      By Tim Lambesis and Ahhhnold.
      I may have done som mistakes here but i don't think so
      P = Pull of
      H = Hammer on

|---------------------|---------------|
|---------------------|---------------|
|--------------7-8-9--|---------------|
|--------------7-8-9--|--5-4-3-4-3-2--|
|--------------5-6-7--|--5-4-3-4-3-2--|
|--1-p0-0000----------|--3-2-1-2-1-0--|


|------------------------------------------------|
|------------------------------------------------|
|------------------------------------------------|
|------------------------------------------------|
|------------------------------------------------|
|--1-p0-0000-h3-p0-0000-1-p0-0000-1-p0-3-p0-1-p0-|
Guitar 2
    
Back to Guitar 1
|--------------------------------------|
|--------------------------------------|
|--------------------------------------|
|--2--5--2--3--2----2--5--2--3--2------|
|--2--5--2--3--2----2--5--2--3--2------|
|--0--3--0--1--0----0--3--0--1--0------|

|------------------------------------------------|
|------------------------------------------------|
|------------------------------------------------|
|------------------------------------------------|
|------------------------------------------------|
|--1-p0-0000-h3-p0-0000-1-p0-0000-1-p0-3-p0-1-p0-|
Guitar 2 again
How about this one...
Tap to rate this tab
 
# A B C D E F G H I J K L M N O P Q R S T U V W X Y Z