Song name
# A B C D E F G H I J K L M N O P Q R S T U V W X Y Z

Austrian Death Machine - If It Bleeds We Can Kill It tab

My names Dave.... i like to play
My e-mail is mecca_man6969@hotmail.com plz let me know how it is... id like to know if i 
helped anyone out
First tab, so cut me some slack.
Some ppl on youtube have been playing this in drop D but its way easier to play it in 
standard, so this is how i play it

Intro/Chorus x4

d|-------------------------|
A|-------------------------|
F|-------------------------|
C|-2~-------2~--1----------|
G|-2~-------2~--1--3-------|
D|-0~---0-0--------1-------|

Verse Riff

d|---------------------------------|
A|---------------------------------|
F|---------------------------------|
C|---------------------------------|
G|-----------------------------3/5-|
D|-000-0-000-000-000-0-000-000-1/3-|

d|--------------------------------|
A|--------------------------------|
F|--------------------------------|
C|--------------------------------|
G|--------------------------------|
D|-000-0-000-000-0-65353131-------|

d|---------------------------------|
A|---------------------------------|
F|---------------------------------|
C|---------------------------------|
G|-----------------------------3/5-|
D|-000-0-000-000-000-0-000-000-1/3-|

d|---------------------------|
A|---------------------------|
F|---------------------------|
C|---------------------------|
G|----------------------3-33-|
D|-000-0-000-000-0-6535-1-11-|

repeat 3 times

Pre-Chorus Riffa

 Guitar 1
d|-----------------------------------------------|
A|-----------------------------------------------|
F|-----------------------------------------------|
C|-2~--------------------------------------------|
G|-2~--------------------------------------------|
D|-0~--------------------------------------------|

 Guitar 2

d|-------------------------------------------------|
A|-------------------------------------------------|
F|-------------------------------------------------|
C|-------------------------------------------------|
G|---8-7-10-7-5-7-8-7-5-7----8-7-10-7-5-7-8-7-8-10-|
D|-00---0----0-------------00---0----0-------------|

Play twice

Pre-Chorus Riffb x1

 Both Guitars
d|--------------------------|
A|--------------------------|
F|--------------------------|
C|--10\9-12\9-7/9/10\9\7/9--|
G|---8\7-10\7-5/7/8 \7\5/7--|
D|-00---0----0--------------|

d|---------------------------|
A|---------------------------|
F|---------------------------|
C|--10\9-12\9-7/9/10\9\10/12-|
G|---8\7-10\7-5/7/8 \7\8 /10-|
D|-00---0----0---------------|

d|--------------------------|
A|--------------------------|
F|--------------------------|
C|--10\9-12\9-7/9/10\9\7/9--|
G|---8\7-10\7-5/7/8 \7\5/7--|
D|-00---0----0--------------|

d|--------------------------------------------|
A|--------------------------------------------|
F|--------------------------------------------|
C|--10\9-12\9-7/9---1-------------------------|
G|---8\7-10\7-5/7---1-3-----  0r G|---4---3---|
D|-00---0----0--------3-----     D|---4---3---|

Then Straight into the Chorus Riff

after playing the Chorus riff a few times they go into the break down.

Break down riff x4

d|----------------------------------------------------------------|
A|----------------------------------------------------------------|
F|----------------------------------------------------------------|
C|----------------------------------------------------------------|
G|-22-2-2-222-222--22-2-2-222-222--22-2-2-222-222-222-2-2-2222222-|
D|-00-0-0-000-000--00-0-0-000-000--00-0-0-000-000-000-0-0-0000000-|

Then
 After break down Riff (if u wanna call it a riff haha)
d|-------------------|
A|-------------------|
F|-------------------|
C|--2~---------------|
G|--2~---------------|
D|--0~---------------|

let ring out until the solo but hit it randomly while ur waiting for the solo to start

Then
Verse riff x1 (rhythme for solo)
After Break Down Riff x1

n right b4 u go back in the pre-chorus riffb u do this (u'll hear it aroud 2:29)

d|------------|
A|------------|
F|------------|
C|10-10-10-10-|
G|-8--8--8--8-|
D|------------|

Pre-Chorus riffb x2
Intro/Chorus riff x4
Verse riff x1
After break down riff x1 n let ring out until song ends (i like to do a little D 
pentatonic decending lick and end on the same note as the one thats being rung out which would 
be D)

(n i dont know the solo... i just make it up everytime i play)
Tap to rate this tab
# A B C D E F G H I J K L M N O P Q R S T U V W X Y Z