Song name
# A B C D E F G H I J K L M N O P Q R S T U V W X Y Z

Austrian Death Machine - Come With Me If You Want To Live tab

Austrian Death Machine
Come with me if you want to live

second tab i was the unregistered that did "If it bleeds, We can kill it"

bad ass song

Verse riffa

eb|-----------------------------------------------------------|
Bb|-----------------------------------------------------------|
Gb|-----------------------------------------------------------|
Db|-----------------------------------------------------------|
Ab|----------8p7p5-7---------8p7p5-8---------8p7p5-7-8-7-5-7-8|
Eb|--0-0-000------0--0-0-000------0--0-0-000------0-0-0-0-----|
p.m    . ...      .  . . ...      .  . . ...      . . . .
eb|----------------------------------------------------------------|
Bb|----------------------------------------------------------------|
Gb|----------------------------------------------------------------|
Db|----------------------------------------------------------------|
Ab|----------8p7p5-7---------8p7p5-8---------8p7p5--3--5-3--5-3-5-2|
Eb|--0-0-000------0--0-0-000------0--0-0-000------0-1-0-0-0-3-1-3-0|
p.m    . ...      .  . . ...      .  . . ...      .   . . .
 repeat 3 times

Chorus riffa

eb|-----------------------------------|
Bb|-----------------------------------|
Gb|-----------------------------------|
Db|---------10\9----------------------|
Ab|----------8\7---------5/7---5/7/8--|
Eb|-000-000------000-000-3/5-0-3/5/6--|
p.m ... ...      ... ...     .

eb|-------------------------------|
Bb|-------------------------------|
Gb|-------------------------------|
Db|---------10\9------------------|
Ab|----------8\7---------7-----8--|
Eb|-000-000------000-000-5-000-6--|
p.m ... ...      ... ...   ...

eb|-----------------------------------|
Bb|-----------------------------------|
Gb|-----------------------------------|
Db|---------10\9----------------------|
Ab|----------8\7---------5/7---5/7/8--|
Eb|-000-000------000-000-3/5-0-3/5/6--|
p.m ... ...      ... ...     .

eb|---------------------------------|
Bb|---------------------------------|
Gb|---------------------------------|
Db|---------10\9--------------------|
Ab|----------8\7----5/7---8---5/7/8-|
Eb|-000-000------00-3/5-0-6-0-3/5/6-|
p.m ... ...      ..     .   .

Verse Riffb

eb|---------------------------------------------------|
Bb|---------------------------------------------------|
Gb|---------------------------------------------------|
Db|---------------------------------------------------|
Ab|-------8-5-7-----------------------8-5-7-8-7-5-7-8-|
Eb|-0-000--0-0--0-0-000-0-0-000-0-000--0-0-0-0-0------|
p.m   ...  . .  . . ... . . ... . ...  . . . . .

eb|-------------------------------------------------------|
Bb|-------------------------------------------------------|
Gb|-------------------------------------------------------|
Db|-------------------------------------------------------|
Ab|-------8-5-7-----------------------7-8-3----3h5---5h7--|
Eb|-0-000--0-0--0-0-000-0-0-000-0-000--0--1-0-0---0-0-----|
p.m   ...  . .  . . ... . . ... . ...  .    . .   . .

some triplets come in here
eb|---------------------------------------------------|
Bb|---------------------------------------------------|
Gb|---------------------------------------------------|
Db|---------------------------------------------------|
Ab|-------8-5-7-----------------------8-5-7-8-7-5-7-8-|
Eb|-0-000--0-0--0-0-000-000-000-0-000--0-0-0-0-0------|
p.m   ...  . .  . . ... ... ... . ...  . . . . .

eb|-------------------------------------------------------|
Bb|-------------------------------------------------------|
Gb|-------------------------------------------------------|
Db|-------------------------------------------------------|
Ab|-------8-5-7-----------------------7-8-3----3h5---5h7--|
Eb|-0-000--0-0--0-0-000-000-000-0-000--0--1-0-0---0-0-----|
p.m   ...  . .  . . ... ... ... . ...  .    . .   . .

Chorus riffb

eb|-----------------------------------|
Bb|-----------------------------------|
Gb|-----------------------------------|
Db|---------10\9----------------------|
Ab|----------8\7---------5/7---5/7/8--|
Eb|-000-000------000-000-3/5-0-3/5/6--|
p.m ... ...      ... ...     .

eb|-------------------------------|
Bb|-------------------------------|
Gb|-------------------------------|
Db|---------10\9------------------|
Ab|----------8\7---------7-----8--|
Eb|-000-000------000-000-5-000-6--|
p.m ... ...      ... ...   ...

eb|-----------------------------------|
Bb|-----------------------------------|
Gb|-----------------------------------|
Db|---------10\9----------------------|
Ab|----------8\7---------5/7---5/7/8--|
Eb|-000-000------000-000-3/5-0-3/5/6--|
p.m ... ...      ... ...     .

eb|---------------------------------|
Bb|---------------------------------|
Gb|---------------------------------|
Db|---------10\9--------------------|
Ab|----------8\7----5/7---8---5/7/8-|
Eb|-000-000------00-3/5-0-6-0-3/5/6-|
p.m ... ...      ..     .   .

second part (little different)

eb|-----------------------------------|
Bb|-----------------------------------|
Gb|-----------------------------------|
Db|---------10\9----------------------|
Ab|----------8\7---------5/7---5/7/8--|
Eb|-000-000------000-000-3/5-0-3/5/6--|
p.m ... ...      ... ...     .

eb|-------------------------------|
Bb|-------------------------------|
Gb|-------------------------------|
Db|---------10\9------------------|
Ab|----------8\7---------7--------|
Eb|-000-000------000-000-5-000-6--|
p.m ... ...      ... ...   ... p.h

eb|-----------------------------------|
Bb|-----------------------------------|
Gb|-----------------------------------|
Db|---------10\9----------------------|
Ab|----------8\7---------5/7---5/7/8--|
Eb|-000-000------000-000-3/5-0-3/5/6--|
p.m ... ...      ... ...     .

eb|-------------------------------------------------|
Bb|-------------------------------------------------|
Gb|-------------------------------------------------|
Db|---------10\9----------------------7/9-10-7/9/10-|
Ab|----------8\7----5/7---8---5/7/8---5/7--8-5/7/8--|
Eb|-000-000------00-3/5-0-6-0-3/5/6-0----0--0-------|
p.m ... ...      ..     .   .       .    .  .
first break down

eb|-----------------------------------------|
Bb|-----------------------------------------|
Gb|-----------------------------------------|
Db|-----------------------------------------|
Ab|-----------------------------------------|
Eb|-00000000000000000000000-3-5-0-6-0-3-5-6-|
    .......................     .   .
eb|---------------------------------------------------------|
Bb|---------------------------------------------------------|
Gb|---------------------------------------------------------|
Db|---------------------------------------------------------|
Ab|---------------------------------------------------------|
Eb|-000-000-000-000-000-000-000-000-000-000-000-000-6-5-3-5-|
p.m ... ... ... ... ... ... ... ... ... ... ... ... 
Bride Riff

eb|-------------------------------------------------------------------|
Bb|-------------------------------------------------------------------|
Gb|-------------------------------------------------------------------|
Db|-------------------------------------------------------------------|
Ab|-----------5---8-----------5---7-----------5---8---7---5---5/7\5-2-|
Eb|-0-0-0-0-0-3-0-6-0-0-0-0-0-3-0-5-0-0-0-0-0-3-0-6-0-5-0-3-0-3/5\3-0-|x2
      . . . .   .   . . . . .   .   . . . . .   .   .   .   .

eb|-------------------------------------------------------------------|
Bb|-------------------------------------------------------------------|
Gb|-------------------------------------------------------------------|
Db|-------------------------------------------------------------------|
Ab|-----------5---8-----------5---7-----------5---8---7---5---5/7\5-2-|
Eb|-0-000-000-3-0-6-0-000-000-3-0-5-0-000-000-3-0-6-0-5-0-3-0-3/5\3-0-|x2
p.m   ... ...   .   . ... ...   .   . ... ...   .   .   .   .

second break down

guitar 1 just keeps pickin the open string while guitar 2 does its part

eb|--------------------------------------------|
Bb|--------------------------------------------|
Gb|--------------------------------------------|
Db|--------------------------------------------|
Ab|--------------------------------------------|
Eb|-000000000000000000000000000000000000000000-|
p.m ..........................................

guitar 2
eb|--------------------------------------------|
Bb|--------------------------------------------|
Gb|--------------------------------------------|
Db|--------------------------------------------|
Ab|--------------------------------------------|
Eb|-00000000000000000000000000-3-5-0-6-0-3-5-6-|
p.m ..........................     .   .

eb|-------------------------------------|
Bb|-------------------------------------|
Gb|-------------------------------------|
Db|-------------------------------------|
Ab|------------666-65-------------5-7-8-|
Eb|-00000000000666-65000000000000-3-5-6-|
p.m .............. .............. 

both guitars
eb|-------------------------------------------------------------------|
Bb|-------------------------------------------------------------------|
Gb|-------------------------------------------------------------------|
Db|-------------------------------------------------------------------|
Ab|---------------------------6-66-65---------------------------------|
Eb|-000-000-000-000-000-000-006-66-65-000-000-000-000-3-5-0-6-0-3-5-6-|x2
p.m ... ... ... ... ... ... ..        ... ... ... ...     .   .
play power chords the second time around at this part|5-7---8---5-7-8-| 
-----------------------------------------------------|3-5-0-6-0-3-5-6-|
                                                          .   .

then in comes the solo (can't tab it out cuz Adam D is to crazy)

rhythme for solo

eb|-----------------------------|
Bb|-----------------------------|
Gb|--------2~---------2~--------|
Db|-2~--5--2~--2~--5--2~--3--5--|
Ab|-2~--5--0~--2~--5--0~--3--5--|
Eb|-0~--3------0~--3------1--3--|

then you do the first part to the chorus then actually start the chorus again

eb|-----------------------------------|
Bb|-----------------------------------|
Gb|-----------------------------------|
Db|---------10\9----------------------|
Ab|----------8\7---------5/7---5/7/8--|
Eb|-000-000------000-000-3/5-0-3/5/6--|
p.m ... ...      ... ...     .

Then restart chorus riff n play thru ONCE
then verse riffa then chorus riffb
and end on

eb|------|
Bb|------|
Gb|------|
Db|--9~--|
Ab|--7~--|
Eb|--0~--|

any questions e-mail me at mecca_man6969@hotmail.com or leave a comment below
thanks!!
Tap to rate this tab
 
# A B C D E F G H I J K L M N O P Q R S T U V W X Y Z