Song name
# A B C D E F G H I J K L M N O P Q R S T U V W X Y Z

Authority Zero - 1234 tab

Authority Zero
12:34

Awesome song by these guys
I've only got the intro so far, 
but I'm still working on the rest of it.
Enjoy :)


Let every note ring.

BPM=170

      E   E   E   E   E   E   E   E      E   E   E   E   E   E   E   E   
E||----------------------------------|----------------------------------|
B||--17------17------17------17------|--15------15------15------15------|
G||------16------16------16------16--|------16------16------16------16--|
D||----------------------------------|----------------------------------|
A||----------------------------------|----------------------------------|
E||----------------------------------|----------------------------------|


   E   E   E   E   E   E   E   E      E   E   E   E   E   E   E   E   
----------------------------------|----------------------------------|
--14------14------14------14------|--15------15------15------15------|
------14------14------14------14--|------16------16------16------16--|
----------------------------------|----------------------------------|
----------------------------------|----------------------------------|
----------------------------------|----------------------------------|


   E   E   E   E   E   E   E   E      E   E   E   E   E   E   E   E   
----------------------------------|----------------------------------|
--17------17------17------17------|--15------15------15------15------|
------16------16------16------16--|------16------16------16------16--|
----------------------------------|----------------------------------|
----------------------------------|----------------------------------|
----------------------------------|----------------------------------|


   E   E   E   E   E   E   E   E      E   E   E   E   E   E   E   E   
----------------------------------|----------------------------------|
--14------14------14------14------|--15------15------15------15------|
------14------14------14------14--|------16------16------16------16--|
----------------------------------|----------------------------------|
----------------------------------|----------------------------------|
----------------------------------|----------------------------------|


   E   E   E   E   E   E   E   E      E   E   E   E   E   E   E   E   
----------------------------------|----------------------------------|
--17------17------17------17------|--15------15------15------15------|
------16------16------16------16--|------16------16------16------16--|
----------------------------------|----------------------------------|
----------------------------------|----------------------------------|
----------------------------------|----------------------------------|


   E   E   E   E   E   E   E   E      E   E   E   E   E   E   E   E   
----------------------------------|----------------------------------|
--14------14------14------14------|--15------15------15------15------|
------14------14------14------14--|------16------16------16------16--|
----------------------------------|----------------------------------|
----------------------------------|----------------------------------|
----------------------------------|----------------------------------|


   E   E   E   E   E   E   E   E      E   E   E   E   E   E   E   E   
----------------------------------|----------------------------------|
--17------17------17------17------|--15------15------15------15------|
------16------16------16------16--|------16------16------16------16--|
----------------------------------|----------------------------------|
----------------------------------|----------------------------------|
----------------------------------|----------------------------------|


   E   E   E   E   E   E   E   E      E   E   E   E   E   E   E   E    
----------------------------------|----------------------------------||
--14------14------14------14------|--15------15------15------15------||
------14------14------14------14--|------16------16------16------16--||
----------------------------------|----------------------------------||
----------------------------------|----------------------------------||
----------------------------------|----------------------------------||
Tap to rate this tab
 
# A B C D E F G H I J K L M N O P Q R S T U V W X Y Z