Song name
# A B C D E F G H I J K L M N O P Q R S T U V W X Y Z

Authority Zero - 1234 tab

|===================================|
|                                   |
|              12:34                |
|         Authority Zero            |
|                                   |
|===================================|

Check out my tab of *Everyday - Authority Zero* ;)

Couldn't find the whole song tabbed, decided to give it a shot :D
In all honesty, I can't hit every note that's written down, I've only been playing for a year :S
So of course, any corrections are strongly appreciated,
and if you want your UG username in the part you corrected, I'll put it in ;)

If you know any good songs that you think I should tab, please give us a yell in the comments :D

Enjoy!!

Standard Tuning (eBGDAE)


======================================


Intro
Part 1  x4
e|----12----12----12----12----10----10----10----10---------|
B|-------12----12----12----12----12----12----12----12------|
G|---------------------------------------------------------|
D|---------------------------------------------------------|
A|---------------------------------------------------------|
E|---------------------------------------------------------|

e|-----9----9----9----9----10----10----10----10------------|
B|-------10---10---10---10----12----12----12----12---------|
G|---------------------------------------------------------|
D|---------------------------------------------------------|
A|---------------------------------------------------------|
E|---------------------------------------------------------|


Part 2  x2
e|-------------------------------------------|
B|-------------------------------------------|
G|-------------------------------------------|
D|------9---9---9-7---7---7---7---7----------|
A|----7---7---7-----5---5---5---5---5--------|
E|-------------------------------------------|

e|-------------------------------------------|
B|-------------------------------------------|
G|-------------------------------------------|
D|----5---5---5---7---7---7---7---7----------|
A|------3---3---3---5---5---5---5---5--------|
E|-------------------------------------------|




Verse
Part 1
e|---------------------------------------------------------|
B|---------------------------------------------------------|
G|------------7-xxxxxx-9-xxxxxx-12-xxx-9-9-9-9-12-12-9-9---|
D|---9-xxxxxx-x-xxxxxx-x-xxxxxx-x--xxx-9-9-9-9-12-12-9-9---|
A|---x-xxxxxx-5-xxxxxx-7-xxxxxx-10-xxx-7-7-7-7-10-10-7-7---|
E|---7-xxxxxx----------------------------------------------|

Part 2
e|---------------------------------------------------------|
B|---------------------------------------------------------|
G|------------7-xxxxxx-9-xxxxxx-12-xxx-9-9-9-9-12-11-9-7---|
D|---9-xxxxxx-x-xxxxxx-x-xxxxxx-x--xxx-9-9-9-9-12-11-9-7---|
A|---x-xxxxxx-5-xxxxxx-7-xxxxxx-10-xxx-7-7-7-7-10-9--7-5---|
E|---7-xxxxxx----------------------------------------------|
Note: the power chords at the end of Part 2 (10-9-7-5) are in time with "Can you tell me?"




Chorus (same as Part 2 of the Intro)
e|-------------------------------------------|
B|-------------------------------------------|
G|-------------------------------------------|
D|------9---9---9-7---7---7---7---7----------|
A|----7---7---7-----5---5---5---5---5--------|
E|-------------------------------------------|

e|-------------------------------------------|
B|-------------------------------------------|
G|-------------------------------------------|
D|----5---5---5---7---7---7---7---7----------|
A|------3---3---3---5---5---5---5---5--------|
E|-------------------------------------------|



Verse 2

Chorus 2




Solo
(I think this is about 95% correct, although it's pretty easy)
e|---10-------------------------------|
B|------13-12-13-12-10-12-10----------|
G|---------------------------12-9-----|
D|------------------------------------|
A|------------------------------------|
E|------------------------------------|

e|------------------------------------|
B|------------------------------/15---|
G|---------12-------12-------12-------|
D|---14b15----14b15----14b15----------|
A|------------------------------------|
E|------------------------------------|

         |--------| x8
e|-------------------17-15-17-19-17-19-22--|
B|---12---17p15p12-------------------------|
G|-----------------------------------------|
D|-----------------------------------------|
A|-----------------------------------------|
E|-----------------------------------------|



Intro (Part 1)  x4

"Can you, can you tell me!" w/ drums

Chorus x4

Intro


Hope that helped :) Please rate and comment! :D
Tap to rate this tab
 
# A B C D E F G H I J K L M N O P Q R S T U V W X Y Z