Song name
# A B C D E F G H I J K L M N O P Q R S T U V W X Y Z

Authority Zero - Societys Sequence tab

-------------------------------------------------------------------------------
			     Societys Sequence - Authority Zero
-------------------------------------------------------------------------------

Tabbed by: johnnythrasher5
Email: metalhead999@insightbb.com

Tuning: standard (E,A,D,G,B,E)


the entire reason i made this tab
is because they only had one guitar pro tab 
and i just made a bass tab for it and i really like this song.

palm mute= dot .


e|-----------------------------|-------------------------------|
B|--------------------(x8)-----|-----------------------(x4)----|
G|-----------------------------|-------------------------------|
D|-9-----7-----------5---------|-------------------------------|
A|-7-7-7-5-5-5-7-----3-3-3-----|-2-2--2-2-2--5-5--5-5----------|
E|-0-----------5-5-5-----------|-0-0--0-0-0--3-3--3-3----------|
     . .   . .   . .   . .


e|-----------------------------|-------------------------------|
B|------------------------(x4)-|-----------------------(x4)----|
G|-----------------------------|-------------------------------|
D|-9-----7-----------5---------|-------------------------------|
A|-7-7-7-5-5-5-7-----3-3-3-----|-2-2--2-2-2--5-5--5-5----------|
E|-0-----------5-5-5-----------|-0-0--0-0-0--3-3--3-3----------|
     . .   . .   . .   . .    

e|-----------------------------|-------------------------------|
B|-------------------(x2)------|----------------------(x4)-----|
G|-----------------------------|-------------------------------|
D|-----------------------------|-------------------------------|
A|-7--5--------7--5------------|-2-2--2-2-2--5-5--5-5----------|
E|-------5--8--------5--8------|-0-0--0-0-0--3-3--3-3----------|


e|-----------------------------|-------------------------------|
B|-----------------------(x4)--|--------------------(x8)-------|
G|-----------------------------|-------------------------------|
D|-9-----7-----------5---------|-------------------------------|
A|-7-7-7-5-5-5-7-----3-3-3-----|-2-2--2-2-2--5-5--5-5----------|
E|-0-----------5-5-5-----------|-0-0--0-0-0--3-3--3-3----------|
     . .   . .   . .   . . 

e|-------------------|
B|-------------------|
G|-------------------|
D|-------------------|
A|-2-----------------|
E|-0-----------------|



************************************

| /   slide up
| \   slide down
| h   hammer-on
| p   pull-off
| ~   vibrato
| +   harmonic
| x   Mute note
| b   Bend
| pb  Pre-bend
| br  Bend release
| pbr Pre-bend release
| brb Bend release bend

************************************
Tap to rate this tab
# A B C D E F G H I J K L M N O P Q R S T U V W X Y Z