Song name
# A B C D E F G H I J K L M N O P Q R S T U V W X Y Z

Authority Zero - Big Bad World tab

-------------------------------------------------------------------------------
			     Big Bad World - Authority Zero
-------------------------------------------------------------------------------
Tabbed by: Beb*
Email: bfb@hotmail.fr

Hi folks! This is my first tab, hope you'll enjoy it.
I mixed live videos (accoustic) for the rythm and album version for the solo. This may 
not be 100% correct (double 9 bends seems a little bit off), but this sounds pretty much 
like it in my opinion!

Tuning: Standard

Rythm - Verse :

e|--7---7-----7---7-----5---5-----5---5-----7---7-----7---7------------------|
B|--7---7-----7---7-----5---5-----5---5-----8---8-----8---8------------------|
G|--7---7-----7---7-----6---6-----6---6-----9---9-----9---9------------------|
D|--9---9-----9---9-----7---7-----7---7-----9---9-----9---9------------------|
A|--9---9-----9---9-----7---7-----7---7-----7---7-----7---7------------------|
E|--7---7-----7---7-----5---5-----5---5-----7---7-----7---7------------------|

Rythm - Chorus

e|--3---3-----2---2----------------------------------------------------------|
B|--3---3-----3---3-----2---2------------------------------------------------|
G|--0---0-----4---4-----2---2------------------------------------------------|
D|--0---0-----4---4-----2---2------------------------------------------------|
A|--2---2-----2---2-----0---0------------------------------------------------|
E|--3---3-----2---2----------------------------------------------------------|

Solo

e|---------------------------------------------------------------------------|
B|--------------------------------------------------------------------9b11r9-|
G|--------------------------------------------------------7-----------9b11r9-|
D|----------------4----------------------------7--7--7h9-----9-----9---------|
A|-------5--7--7--------------------5--7--7h9--------------------------------|
E|---\7--------------5--5--7--5--7-------------------------------------------|

e|---------------------------------------------------------------------------|
B|-9-------------------------------------------------------------------------|
G|-9--7-----7-------------------------7----------------7----7--7--7--9----9--|
D|-------9-----9--7----9--7-----7--9-----9----9--9--9------------------------|
A|---------------------------9-----------------------------------------------|
E|---------------------------------------------------------------------------|

e|---------------------------------------------------------------------------|
B|-----------------------10--12--10--12--12p10------10--9b11-----------------|
G|--9--9/11--11--11--11--11--11--11--11---------11------9b11--7--9--7-----7--|
D|---------------------------------------------------------------------9-----|
A|---------------------------------------------------------------------------|
E|---------------------------------------------------------------------------|

e|---------------------------------------------------------------------------|
B|---------------------------------------------------------------------------|
G|---------------------------------------------------------------------------|
D|--9----9--7--9--7-----------------4----------------------4-----------------|
A|-------------------9--8--7--5--7-----7--5-------5--7--7--------------------|
E|-------------------------------------------7----------------5--5--7--5--7--|

e|---------------------------------------------------------------------------|
B|---------------------------------------------------------------------------|
G|---------------------------------------------------------------------------|
D|---------------------------------------------------------------------------|
A|--5--5--5--5/7--7--7--7/9--9--9--9-----------------------------------------|
E|---------------------------------------------------------------------------|


************************************

| /   slide up
| \   slide down
| h   hammer-on
| p   pull-off
| ~   vibrato
| +   harmonic
| x   Mute note
| b   Bend
| pb  Pre-bend
| br  Bend release
| pbr Pre-bend release
| brb Bend release bend

************************************
Tap to rate this tab
 
# A B C D E F G H I J K L M N O P Q R S T U V W X Y Z