Guitaretab - guitar tabs
Song name
# A B C D E F G H I J K L M N O P Q R S T U V W X Y Z

Authority Zero - La Surf tab

Authority Zero - La Surf
Submitted By: Belt
EMail: devilman@comic.com


This whole song is double picked except riff 4. Play 
with medium distortion. Not a bad tab for a bass 
player, huh?
(x)=Bend and strum

Riff 1:
E|-------7-8-7-5---5---------7-8-7-5---5---||
B|-5-5-5---------5-5---5-5-5---------5-5---||
G|-----------------------------------------||
D|-----------------------------------------||
A|-----------------------------------------||
E|-----------------------------------------||
[ Tab from: http://www.guitaretab.com/a/authority-zero/35838.html ]
Riff 2:
E|--12-12-12-13-15-13-12----12---------7-8-7-5---5--||
B|-----------------------12-12---5-5-5---------5-5--||
G|--------------------------------------------------||
D|--------------------------------------------------||
A|--------------------------------------------------||
E|--------------------------------------------------||

Riff 3:
E|------------------1--3--5---||
B|--5-5-5-6-8-6-5-0-1--3--5---||
G|----------------------------||
D|----------------------------||
A|----------------------------||
E|----------------------------||

Riff 4 (not double picked):
E|--5-(6)-5-(6)-5-(6)-5-(6)-----------------------||
B|--5-(6)-5-(6)-5-(6)-5-(6)-5-------------3-4/5-3-||
G|--5-(6)-5-(6)-5-(6)-5-(6)---5-2-2-2-2-5---------||
D|------------------------------------------------||
A|------------------------------------------------||
E|------------------------------------------------||
Related for La Surf tab
Advertisement will be closed in 10 seconds