Song name
# A B C D E F G H I J K L M N O P Q R S T U V W X Y Z

Authority Zero - Painted Windows tab

This song is very fun to play when you learn it
Standard tuning

Pt.1 guitar 1

---------3---------------3-----------3--------------------|
---0--3-----3--0---0--3--------0--3-----3--0--1~--1--0----|
-0---------------0-----------0-------------------------0--|
----------------------------------------------------------|
----------------------------------------------------------|
----------------------------------------------------------|
Repeat

Pt.1 guitar 2

----------------------------------------------------------|
----------------------------------------------------------|
----------------------------5-----------------------------|
----------7--7--7-----------3-----------7--7--7-----------|
-5--5--5--5--5--5--3--3--3-----5--5--5--5--5--5--3---5----|
-3--3--3-----------1--1--1-----3--3--3-----------1---3----|

Repeat


Pt.2 guitar 1

--------------------------------------------------------------------|
--------------------------------------------------------------------|
------------------------------------------------------5--5--5--5--3-|
--------------------------------------------------------------------|
------------------------------------------------------3--3--3--3--1-|
--3-3-3-3-3-5-5-5-6-6-6-1-1-1-1-6-6-6-5-5-3-3-3-1-1-3---------------|
Palm Muted_________________________________________________
Tap to rate this tab
 
# A B C D E F G H I J K L M N O P Q R S T U V W X Y Z