Guitaretab - guitar tabs
Song name
# A B C D E F G H I J K L M N O P Q R S T U V W X Y Z

Authority Zero - Some People tab

e|----------------------------------------------------------------|
B|----------------------------------------------------------------|
G|----------------------------------------------------------------|
D|------14----14-------10---10-------12------12------9-----9------|
A|-12-12--12-12-12-8-8---8-8--8-10-10--10-10---10-7-7--7-7--7-----|
E|----------------------------------------------------------------|

[ Tab from: http://www.guitaretab.com/a/authority-zero/56916.html ]
------------------------------------------------------------------------------|
------------------------------------------------------------------------------|
------------------------------------------------------------------------------|
------14-----14-------10---10--------9------10------12------10------9h10------|
-12-12--12-12--12-8-8---8-8--8--10-10--10-10---10-10---10-10--10-10-10--------|
------------------------------------------------------------------------------|

I'll do more of the song if people would like, just request so in the comments.
Related for Some People tab
Advertisement will be closed in 10 seconds