Song name
# A B C D E F G H I J K L M N O P Q R S T U V W X Y Z

Authority Zero - Chile Con Crudo tab

Authority Zero
Chile Con Crudo
Tabbed by: Alec_123


Intro/Verse
e|---------------------------------------------------------------|\
B|---------------------------------------------------------------| \
G|---------------------------------------------------------------|  \
D|-----7-7-----7-4--4-5-5-4-4-5-4-8*-7*--------------------------|   \
A|-5-5-----5-5---------------------------------------------------|    \
E|---------------------------------------------------------------|     \
*repeat as many times as needed						\ 
								Play twice
									/
e|---------------------------------------------------------------|     /
B|---------------------------------------------------------------|    /
G|---------------------------------------------------------------|   /
D|-----7-7-----7-4--4-5-5-4-4-5-4-3333-2*------------------------|  /
A|-5-5-----5-5---------------------------------------------------| / 
E|---------------------------------------------------------------|/
*repeat as many times as needed

e|---------------------------------------------------------------|
B|-------------7-------------------5------------------3----------|
G|-4-----8------------2-----6------------0------4----------------|
D|----------------------------------------------------------4b*--|
A|---------------------------------------------------------------|
E|---------------------------------------------------------------|
*repeat as many times as needed

play these and you've got ourself the whole song. Or almost, 
haven't figured out the bridgeŽ...yet

comments to pigmit@hotmail.com
Tap to rate this tab
# A B C D E F G H I J K L M N O P Q R S T U V W X Y Z