Song name
# A B C D E F G H I J K L M N O P Q R S T U V W X Y Z

Autograph Of The Sun - Crash tab

My first tab. Crash!, a dark ballad about nine eleven by Autograph of the Sun.
REALLY easy song to play, just break up Am and G.

Autograph of the Sun
Crash!
Crash! (Album)

Intro:
-------0-----------0-----|
-----1---1-------1---1---|
---2-------2---2-------2-|
-2-----------2-----------|
-------------------------|
-------------------------|

Verse:

-------0-----------0-----------------------------------|
-----1---1-------1---1---------0-----------0-----------|
---2-------2---2-------2-----0---0-------0---0---------|
-2-----------2-------------0-------0---0-------0-------|
-------------------------------------------------------|
-------------------------3-----------3-----------------|

Prechorus:

-------------------------------------------------------|
-------------------------------------------------------|
-------------------------------------------------------|
-0-0-0-0-2-2-2-2-0-0-0-0-2-2-2-2-----------------------|
-2-2-2-2-2-2-2-2-2-2-2-2-2-2-2-2-----------------------|
-3-3-3-3-0-0-0-0-3-3-3-3-0-0-0-0-----------------------|


Chorus:

Strum G once.

Outro:
-------0------|
-----1---1----|
---2-------2--|(let ring)
-2------------|
--------------|
--------------|

Order:

Intro
Verse x2
Prechorus
Chorus
Verse x4
Prechorus
Chorus
Prechorus
Chorus
Prechorus x2
Chorus
Outro

Autograph of the Sun distribute through the indie label TuneCore. Their site is
http://www.ilike.com/artists/autograph+of+the+sun
Tap to rate this tab
# A B C D E F G H I J K L M N O P Q R S T U V W X Y Z