Guitaretab - guitar tabs
Song name
# A B C D E F G H I J K L M N O P Q R S T U V W X Y Z

Autograph - Friday tab

tuning:standard
tabbed by:a crazy teenage rock and roll fan
artist:autograph
album:sign in please
song title:Friday
year:1984

key:
x=mute note
p=pull off
h=hammeron
/=slide up
\=slide down
b=bend string
^=let ring
$=i think i tabbed this part really well (joke)

Also please note:
there are many key board solos in this song and i am sure that i have just the guitar
parts but there may be some keyboard notes on here so listen to the record carefully.

intro
E|------------------------------------------------------------|
B|------------------------------------------------------------|
G|------------------------------------------------------------|
D|-5-x-x-4-x-x-5-x-x-4-x-x--5-5--4-x-x-2-x-x-4-x-x-2-x-x--4-5-|
A|------------------------------------------------------------|
E|------------------------------------------------------------|

E|-------------------------------------------------------------|
B|-------------------------------------------------------------|
G|-------------------------------------------------------------|
D|-2-x-x-0-x-x-2-x-x-0-x-x--2-2--2-x-x-2-x-x-0-x-x-0-x-x-0h2p0-|
A|-------------------------------------------------------------|
E|-------------------------------------------------------------|
play this twice

verse
E|------------------------------------------------------------|
B|------------------------------------------------------------|
G|-7-x-x-6-x-x-7-x-x-6-x-x--7-7--6-x-x-4-x-x-6-x-x-4-x-x--6-7-|
D|-5-x-x-4-x-x-5-x-x-4-x-x--5-5--4-x-x-2-x-x-4-x-x-2-x-x--4-5-|
A|------------------------------------------------------------|
E|------------------------------------------------------------|

E|-------------------------------------------|
B|-------------------------------------------|
G|-4-x-x-2-x-x-4-x-x-2-x-x--4-4---2-2--------|
D|-2-x-x-0-x-x-2-x-x-0-x-x--2-2---0-0--0h2p0-|
A|-------------------------------------------|
E|-------------------------------------------|
play this twice for all verses

chorus
E|-----------------------------|
B|-----------------------------|
G|-9^^^11^^^12^^^12^^^12\11^^^-|
D|-9^^^11^^^12^^^12^^^12\11^^^-|
A|-7^^^9^^^^10^^^10^^^10\9^^^^-|
E|-----------------------------|
play this four times

then finish with this
E|-----------------|
B|-----------------|
G|-9-12-11--11--11-|
D|-9-12-11--11--11-|
A|-7-10-9---9---9--|
E|-----------------|
play this two times

then play the verse and chorus again
[ Tab from: http://www.guitaretab.com/a/autograph/135041.html ]
Solo
E|------------------------------------------------|
B|-8---8---8---8-8---8-8---8-8---b10p10-b8p8-b7p7-|
G|------------------------------------------------|
D|------------------------------------------------|
A|------------------------------------------------|
E|------------------------------------------------|

E|-----------------------------------------------10h12-15-15-14^^^-|
B|------------------------------------------8h10-------------------|
G|-b9p9-b7p7------------------------7h9-7h9------------------------|
D|-----------b9p9--------------------------------------------------|
A|----------------b5p5-b5p5---3h5p3--------------------------------|
E|-----------------------------------------------------------------|

  $ $ $ $ $ $ $ (joke again, it souns pretty good)
E|-15p14p12----15p14p12----15p14p12----15p14p12---15p14p12----15p14p12----|
B|----------15----------15----------15---------15----------15----------15-|
G|------------------------------------------------------------------------|
D|------------------------------------------------------------------------|
A|------------------------------------------------------------------------|
E|------------------------------------------------------------------------|

E|-15p14p12----15p14p12----14p13p11----14p13p11----14p13p11----14p13p11----|
B|----------15----------15----------14----------14----------14----------14-|
G|-------------------------------------------------------------------------|
D|-------------------------------------------------------------------------|
A|-------------------------------------------------------------------------|
E|-------------------------------------------------------------------------|

E|-14p13p11----14p13p11----14p13p11----14p13p11----12p11p9----12p11p9----|
B|----------14----------14----------14----------14---------12---------12-|
G|-----------------------------------------------------------------------|
D|-----------------------------------------------------------------------|
A|-----------------------------------------------------------------------|
E|-----------------------------------------------------------------------|

E|-12p11p9----12p11p9----12p11p9----12p11p9----12p11p9----12p11p9----|
B|---------12---------12---------12---------12---------12---------12-|
G|-------------------------------------------------------------------|
D|-------------------------------------------------------------------|
A|-------------------------------------------------------------------|
E|-------------------------------------------------------------------|

E|-8p7p5---8p7p5------10-9-7-----------------10^^^^^^^^-|
B|-------8-------8-----------10-9-7----------9^^^^^^^^^-|
G|----------------------------------7^^^^^^^^7^^^^^^^^^-|
D|------------------------------------------------------|
A|------------------------------------------------------|
E|------------------------------------------------------|

then play the verse and chorus again and that should take care of it.

ROCK AND ROLL WILL NEVER DIE!!!!!!!!
Related for Friday tab
Advertisement will be closed in 10 seconds