Song name
# A B C D E F G H I J K L M N O P Q R S T U V W X Y Z

Autoinfanticide - Execution Of A Titan tab

Dropped A AEADGBe

Both
e|--------------------------------------------------------------------|
B|--------------------------------------------------------------------|
G|--------------------------------------------------------------------|
D|--------------------------------------------------------------------|
A|---------------------8-----7-----8p5-7p4--------------------------5-|
E|-8p5-5-5-5-5-5-5-5-5---5-5---5-5---------5-5-5-5-5-5-5-5-5'-7'-8'---|
A|--------------------------------------------------------------------|
       x x x x x x x x   x x   x x         x x x x x x x x x  x  x
Both
e|-------------------------------------------------------------------|
B|-------------------------------------------------------------------|
G|-------------------------------------------------------------------|
D|-------------------------------------------------------------------|
A|-7---7---7---7---8---8---8---8---5---5---5---5---10---10---10---10-|
E|---5---5---5---5---5---5---5---5---5---5---5---5----5----5----5----|
A|-------------------------------------------------------------------|
     x   x   x   x   x   x   x   x   x   x   x   x    x    x    x
Both
e|------------|
B|------------|
G|------------|
D|------------|
A|----------5-|
E|-5'-7'-8'---|
A|------------|
   x  x  x
Both
e|--------------------------------------------------------------------|
B|--------------------------------------------------------------------|
G|--------------------------------------------------------------------|
D|--------------------------------------------------------------------|
A|---------------------8-----7-----8p5-7p4--------------------------5-|
E|-8p5-5-5-5-5-5-5-5-5---5-5---5-5---------5-5-5-5-5-5-5-5-5'-7'-8'---|
A|--------------------------------------------------------------------|
       x x x x x x x x   x x   x x         x x x x x x x x x  x  x
Rhythm
e|----------------------------------------------------| x2
B|----------------------------------------------------|
G|----------------------------------------------------|
D|----------------------------------------------------|
A|-5-------8-------7----------4-------5-------1-------|
E|-5-------8-------7----------4-------5-------1-------|
A|-5-------8-------7----------4-------5-------1-------|

Lead
e|-------13-17---------------|------------------|------------| Barred
B|-----15-----15-------------|------------------|------------| Section
G|---14---------14-----------|------------------|------------| x2
D|-15-------------15~--------|------------------|------------|
A|---------------------------|16------17------13|-17--20--19-|
E|---------------------------|------------------|------------|
A|---------------------------|------------------|------------|

Both
e|------------------------------|
B|------------------------------|
G|------------------------------|
D|------------------------------|
A|------------------------------|
E|------------------------------|
A|-5'--8'--7'-----4'--5'--1'----|

Both
e|-------------------------------------------------------|
B|-------------------------------------------------------|
G|-------------------------------------------------------|
D|-------------------------------------------------------|
A|-------------------------------------------------------|
E|-------8'--------7'------------8'----------5--------5--|
A|-5'----------4'------4'--5'----------5-7-8----5-7-8----|
                                       x x x    x x x
Played twice                                     |Harmony after second time
e|-----------------------------------------------|----------------------|
B|-----------------------------------------------|----------------------|
G|-----------------------------------------------|----------------------|
D|-----------------------------------------------|----------------------|
A|-----------------------------------------------|----------------------|
E|-8-----8--8-----8------------------------------|-11-----11--11-----11-|
A|---6-5------6-5-----00000--00000--00000--00000-|----9-8--------9-8----|
     x x      x x     xxxxx  xxxxx  xxxxx  xxxxx      x x        x x
Left
e|---------------------------------|---------------------------------|
B|---------------------------------|---------------------------------|
G|---------------------------------|---------------------------------|
D|---------------------------------|---------------------------------|
A|-------7-8-------7-8-------------|-------6-7-------6-7-------------|
E|-5-5-5-----5-5-5-----5-5-5-5-5-5-|-4-4-4-----4-4-4-----4-4-4-4-4-4-|
A|---------------------------------|---------------------------------|
   x x x     x x x     x x x x x x   x x x     x x x     x x x x x x 
Right
e|---------|---------|
B|---------|---------|
G|---------|---------|
D|---------|---------|
A|---------|---------|
E|-5-5-5---|-4-4-4---|
A|---------|---------|

Both
e|---------------------------------|---------------------------------|
B|---------------------------------|---------------------------------|
G|---------------------------------|---------------------------------|
D|---------------------------------|---------------------------------|
A|-------7-8-------7-8-------------|-------6-7-------6-7-------------|
E|-5-5-5-----5-5-5-----5-5-5-5-5-5-|-4-4-4-----4-4-4-----4-4-4-4-4-4-|
A|---------------------------------|---------------------------------|
   x x x     x x x     x x x x x x   x x x     x x x     x x x x x x 
Rhythm
Each bar is played twice before moving to the next
e|-------------------------------------|------------------------------------|
B|-------------------------------------|------------------------------------|
G|-------------------------------------|------------------------------------|
D|-------------------------------------|------------------------------------|
A|-------------------------------------|------------------------------------|
E|-8p5-8p5-5-5-8p5-8p5-5-5-5-5-5-5-5-5-|7p4-7p4-4-4-7p4-7p4-4-4-4-4-4-4-4-4-|
A|-------------------------------------|------------------------------------|
           x x         x x x x x x x x          x x         x x x x x x x x 
Solo    |play on the 14th position after this |x2
e|-18^~-|----------15-------18-17-15----------|----|
B|------|-15-17-18----18-17----------18-17-15-|-14~|
G|------|-------------------------------------|----|
D|------|-------------------------------------|----|
A|------|-------------------------------------|----|
E|------|-------------------------------------|----|
A|------|-------------------------------------|----|

e|----------------------------------------------------|
B|----------------------------------------------------|
G|-16-15-13-------------------------------------------|
D|----------16-15-13-16-15-13-------------------------|
A|----------------------------16-14-13-16-14-13-------|
E|----------------------------------------------16-14~|
A|----------------------------------------------------|

e|----------------------------------------13-14-13-------------------------|
B|----------------------------------14-16----------16-14-------------------|
G|-------------------------13-15-16----------------------16-15-13----------|
D|----------------13-15-16----------------------------------------16-15-13-|
A|-------13-14-16----------------------------------------------------------|
E|-14-16-------------------------------------------------------------------|
A|-------------------------------------------------------------------------|

e|-----------------|
B|-----------------|
G|-----------------|
D|-----------------|
A|-16-14-13--------|
E|----------16-14\-|
A|-----------------|

Rhythm
e|---------------------------------|
B|---------------------------------|
G|---------------------------------|
D|-11------7-------8-------5-------|
A|-10------6-------7-------4-------|
E|-8-------4-------5-------2-------|
A|-8-------4-------5-------2-------|

Lead
e|---------------------------------|
B|---------------------------------|
G|-3/6~----7----3---2--3--2~-------|
D|---------------------------------|
A|---------------------------------|
E|---------------------------------|
A|---------------------------------|

[BASS TAPPING INTENSIFIES]

Rhythm
e|-------------------------|
B|-------------------------|
G|-------------------------|
D|-------------------------|
A|-3-----4-----7-----6-----|
E|-1-----1-----4-----7-----|
A|-------------------------|

Lead
e|-17---15---14-15---17-15----14---|
B|---------------------------------|
G|---------------------------------|
D|---------------------------------|
A|---------------------------------|
E|---------------------------------|
A|---------------------------------|

Both
e|-------------------------|
B|-------------------------|
G|-------------------------|
D|-------------------------|
A|-3-----4-----7-----6-----|
E|-1-----1-----4-----7-----|
A|-------------------------|

Both
e|------------|
B|------------|
G|------------|
D|------------|
A|----------5-|
E|-5'-7'-8'---|
A|------------|
   x  x  x

Both
e|--------------------------------------------------------------------|
B|--------------------------------------------------------------------|
G|--------------------------------------------------------------------|
D|--------------------------------------------------------------------|
A|---------------------8-----7-----8p5-7p4--------------------------5-|
E|-8p5-5-5-5-5-5-5-5-5---5-5---5-5---------5-5-5-5-5-5-5-5-5'-7'-8'---|
A|--------------------------------------------------------------------|
       x x x x x x x x   x x   x x         x x x x x x x x x  x  x
Both
e|------------------------------------------|
B|------------------------------------------|
G|------------------------------------------|
D|------------------------------------------|
A|-5'---------------------8'----------------|
E|------------------------------------------|
A|------8'-------5'-4'-5'------5'---4'-2'---|

Both
e|------------------------------------------|
B|------------------------------------------|
G|------------------------------------------|
D|------------------------------------------|
A|------------------------------------------|
E|-5'---7'---8'---7'---5'---7'---8'---10'---|
A|------------------------------------------|

Left
e|------------------------------------------|
B|------------------------------------------|
G|------------------------------------------|
D|------------------------------------------|
A|------------------------------------------|
E|-5'---7'---8'---7'---5'---7'---8'---10'---|
A|------------------------------------------|

Right
e|------------------------------------------|
B|------------------------------------------|
G|------------------------------------------|
D|-7'---9'---10'--9'---7'---9'---10'--12'---|
A|------------------------------------------|
E|------------------------------------------|
A|------------------------------------------|

Rhythm
e|---------------------------------------------------------|
B|---------------------------------------------------------|
G|---------------------------------------------------------|
D|-7-7-7-7-7-7-7-7-9-9-9-9-9-9-9-9-10-10-10-10-10-10-10-10-|
A|---------------------------------------------------------|
E|-5-5-5-5-5-5-5-5-7-7-7-7-7-7-7-7-8--8--8--8--8--8--8--8--|
A|---------------------------------------------------------|

Rhythm cont.
e|-------------------------|
B|-------------------------|
G|-------------------------|
D|-12-12-12-12-12-12-12-12-|
A|-------------------------|
E|-10-10-10-10-10-10-10-10-|
A|-------------------------|

Lead
e|-----------------12'-14'---15'-14'-12'------------------12'-14'---15'-17'-|
B|-12'---14'-15'--------------------------12'---14'-15'---------------------|
G|--------------------------------------------------------------------------|
D|--------------------------------------------------------------------------|
A|--------------------------------------------------------------------------|
E|--------------------------------------------------------------------------|
A|--------------------------------------------------------------------------|

Lead cont.
e|-----------------12'-14'---15'-14'-12'------------------12'-15'---17'-19'-|
B|-12'---14'-15'--------------------------12'---14'-15'---------------------|
G|--------------------------------------------------------------------------|
D|--------------------------------------------------------------------------|
A|--------------------------------------------------------------------------|
E|--------------------------------------------------------------------------|
A|--------------------------------------------------------------------------|

Lead
e|-17~------------------|
B|----------------------|
G|----------------------|
D|----------------------|
A|----------------------|
E|----------------------|
A|----------------------|

Rhythm
e|----------------------|
B|----------------------|
G|----------------------|
D|-7--------------------|
A|-x--------------------|
E|-5--------------------|
A|-0--------------------|


Slide - / \
Vibrato - ~
Tremolo - '
Palm mute/muted note - x
Tap to rate this tab
# A B C D E F G H I J K L M N O P Q R S T U V W X Y Z