Song name
# A B C D E F G H I J K L M N O P Q R S T U V W X Y Z

Autolux - Robots In The Garden tab

ROBOTS IN THE GARDEN
by Autolux

Tabbed by: itsonlycapital
Email: itsonlycapital@gmail.com

Tuned down 1/2 step


Intro/Chorus

eb|-------------------|-------------------|
Bb|-------------------|-------------------|
Gb|-------------------|-------------------|
Db|-------------------|-------------------|
Ab|--7-7-7-7---7-7-8--|----8-8-7-7-7-7-7--|
Eb|--0-0-0-5---5-5-6--|----6-6-3-3-3-3-3--|


Verse

eb|---------------|---------------|---------------|---------------|
Bb|---------------|---------------|---------------|---------------|
Gb|---------------|---------------|---------------|-------7b8-----|
Db|-----------4---|-----------4---|-----------4---|-------7b8-----|
Ab|-7-7-7-7---0---|-7-7-7-7---0---|-7-7-7-7---0---|-7-7-7---------|
Eb|-0-0-0-0-------|-0-0-0-0-------|-0-0-0-0-------|-0-0-0---------|

(Omit the bends at the end of the second verse and just hold the octave)

That's it.  There's a lot of feedback and fills in there that you can
ad lib, but this is the main structure of the song.  Enjoy.
Tap to rate this tab
 
# A B C D E F G H I J K L M N O P Q R S T U V W X Y Z