Song name
# A B C D E F G H I J K L M N O P Q R S T U V W X Y Z

Autolux - Here Comes Everybody tab

HERE COMES EVERYBODY
by Autolux

Tabbed by: itsonlycapital
Email: itsonlycapital@gmail.com

Tuned down 1/2 step


Intro/Verse

eb|-----------------|-----------------|-----------------|-----------------|
Bb|-6-6-6-6-6-6-6-6-|-6-6-6-6-6-6-6-6-|-5-5-5-5-5-5-5-7-|-7-7-7-7-7-7-7-7-|
Gb|-6-6-6-6-6-6-6-6-|-6-6-6-6-6-6-6-6-|-x-x-x-x-x-x-x-x-|-x-x-x-x-x-x-x-x-|
Db|-6-6-6-6-6-6-6-6-|-6-6-6-6-6-6-6-6-|-6-6-6-6-6-6-6-6-|-6-6-6-6-6-6-6-6-|
Ab|-4-4-4-4-4-4-4-4-|-4-4-4-4-4-4-4-4-|-7-7-7-7-7-7-7-7-|-7-7-7-7-7-7-7-7-|
Eb|-----------------|-----------------|-----------------|-----------------|


Chorus

eb|-----------------|-----------------|-----------------|-----------------|
Bb|-6-6-6-6-6-6-6-6-|-9-9-9-9-9-9-9-9-|-----------------|---------7-7-7-7-|
Gb|-6-6-6-6-6-6-6-6-|-9-9-9-9-9-9-9-9-|-----8-8-8-7---1-|---1-1-1-7-7-7-7-|
Db|-6-6-6-6-6-6-6-6-|-9-9-9-9-9-9-9-9-|-7-7-7-7-7-7---2-|---2-2-2-7-7-7-7-|
Ab|-4-4-4-4-4-4-4-4-|-7-7-7-7-7-7-7-7-|-7-7-7-7-7-7---2-|---2-2-2-5-5-5-5-|
Eb|-----------------|-----------------|-5-5-5-5-5-5---0-|---0-0-0---------|
Tap to rate this tab
 
# A B C D E F G H I J K L M N O P Q R S T U V W X Y Z