Song name
# A B C D E F G H I J K L M N O P Q R S T U V W X Y Z

Autolux - Here Comes Everybody tab

-------------------------------------------------------------------------------
			     Here comes everybody - Autolux
-------------------------------------------------------------------------------
Tabbed by: M. Robert Westley
Email:Gigantor_84@yahoo.com

Tuning: One step down

Verse

     x16  x8  x8
e|------------------|
B|--------10--x-----|
G|----11--10--12----|
D|----12--10--10----|
A|----12--8---8-----|
E|----10--8---8-----|

Chourus (Sha-la-la)

      x8  x8
e|---------------------------------------------|
B|---------------------------------------------|
G|----11--10------9-9-8-7-----------8-8-8-8----|
D|----12--10--8-8-x-x-x-x--3-3-3-3--8-8-8-8----|
A|----12--10--8-8-8-8-8-8--3-3-3-3--6-6-6-6----|
E|----10--8---6-6-6-6-6-6--1-1-1-1-------------|


| /  slide up
| \  slide down
| h  hammer-on
| p  pull-off
| ~  vibrato
| +  harmonic
| x  Mute note
===============================================================================
Tap to rate this tab
 
# A B C D E F G H I J K L M N O P Q R S T U V W X Y Z