Song name
# A B C D E F G H I J K L M N O P Q R S T U V W X Y Z

Automatic Eye - Away From Sunshine tab

http://www.automaticeye.com

Intro
Guitar 1 x4
e|-----------|
B|-555-44-55-|
G|-666-66-66-|
D|-----------|
A|-----------|
E|-----------|


1st Chorus
Guitar 1 x2                               then
e|-------------------------------------|-------------------|
B|-------------------------------------|-------------------|
G|-66666666-22222222----------44444444-|-22222222----------|
D|-66666666-22222222-22222222-44444444-|-22222222-44444444-|
A|-44444444-00000000-22222222-22222222-|-00000000-44444444-|
E|-------------------00000000----------|----------22222222-|

Guitar 2 x2                          then
e|-------7----------------2-2-4-0-|-------------|
B|-5-4-5---5-4-5----5-4-5---------|-5~---4~---5-|
G|--------------------------------|-------------|
D|--------------------------------|-------------|
A|--------------------------------|-------------|
E|--------------------------------|-------------|


Verse
Guitar 1 x2
e|--------|
B|--------|
G|-6~---2~|
D|-6~---2~|
A|-4~---0~|
E|--------|

Guitar 2 (Repeat until 0.37)
e|-----|
B|-5---|
G|---6-|
D|-----|
A|-----|
E|-----|

Guitar 1 x2
e|------------------------------------|
B|------------------------------------|
G|-66-666-666-666-6---22-222-222-22-2-|
D|-66-666-666-666-6---22-222-222-22-2-|
A|-44-444-444-444-4---00-000-000-00-0-|
E|------------------------------------|

Guitar 2
e|-------------------------------------|-------------------------------------|
B|-55-555-555-555-5---55-555-555-555-5-|-55-555-555-555-5---55-555-444-444-4-|
G|-66-666-666-666-6---66-666-666-666-6-|-66-666-666-666-6---66-666-666-666-6-|
D|-------------------------------------|-------------------------------------|
A|-------------------------------------|-------------------------------------|
E|-------------------------------------|-------------------------------------|



Guitar 1
e|--------------------------------------------------------------------|
B|--------------------------------------------------------------------|
G|-22-222-2---44-444-4---66-666-6---66-666-6------22-222-2---44-444-4-|
D|-22-222-2---44-444-4---66-666-6---66-666-6------22-222-2---44-444-4-|
A|-00-000-0---22-222-2---44-444-4---44-444-4------00-000-0---22-222-2-|
E|--------------------------------------------------------------------|


Guitar 2
e|----------------------------------------------------|
B|-55-555-444-444-555-555-555-555------55-555-444-444-|
G|-66-666-666-666-666-666-666-666------66-666-666-666-|
D|----------------------------------------------------|
A|----------------------------------------------------|
E|----------------------------------------------------|


2nd Chorus
Guitar 1 x3
e|-------------------------------------|
B|-------------------------------------|
G|-66666666-22222222----------44444444-|
D|-66666666-22222222-22222222-44444444-|
A|-44444444-00000000-22222222-22222222-|
E|-------------------00000000----------|

Guitar 2 x3
e|-------7----------------2-2-4-0-|
B|-5-4-5---5-4-5----5-4-5---------|
G|--------------------------------|
D|--------------------------------|
A|--------------------------------|
E|--------------------------------|

Repeat Verse but the last part is different
Guitar 1
e|--------------------------|
B|--------------------------|
G|-2~---4~---6~------2~---4-|
D|-2~---4~---6~------2~---4~|
A|-0~---2~---4~------0~---2~|
E|--------------------------|

Guitar 2
e|--------------------------|
B|-5~---4~---5~------5~---4~|
G|-6~---6~---6~------6~---6~|
D|--------------------------|
A|--------------------------|
E|--------------------------|

Repeat Chorus

Solo
Guitar 1 x2
e|-------------------------------------------|
B|-------------------------------------------|
G|-99999999---99999999---22222222---44444444-|
D|-99999999---99999999---22222222---44444444-|
A|-77777777---77777777---00000000---22222222-|
E|-------------------------------------------|


Guitar 2
e|--------------------------------------------------
B|--------------------------------------------------
G|------------8-9--------------------8-9---------6b-
D|-6~--6-7-9------9-7-9/11\9---6-7-9-----9-7~-9-----
A|--------------------------------------------------
E|--------------------------------------------------

Guitar 1
e|-------------------------------------------|
B|-------------------------------------------|
G|-66666666---66666666---22222222---44444444-|
D|-66666666---66666666---22222222---44444444-|
A|-44444444---44444444---00000000---22222222-|
E|-------------------------------------------|


e|-------------------------7---------------------------------------------------------------|
B|-----4-5-4---------5-4-5---5-4-5-------------4-5-4------5-4-5-777777/999999/101010101010-|
G|-4-6-------6-4-6-------------------4/6b--4-6-------6-4-6---------------------------------|
D|-----------------------------------------------------------------------------------------|
A|-----------------------------------------------------------------------------------------|
E|-----------------------------------------------------------------------------------------|


Last Chorus
Guitar 1 x3                               then
e|-------------------------------------|-------------------|
B|-------------------------------------|-------------------|
G|-88888888-44444444----------66666666-|-44444444----------|
D|-88888888-44444444-44444444-66666666-|-44444444-66666666-|
A|-66666666-22222222-44444444-44444444-|-22222222-66666666-|
E|-------------------22222222----------|----------44444444-|

Guitar 2 (2.59) then I think it plays same as guitar 1
e|----------------|
B|-6---4---6---7b-|
G|----------------|
D|----------------|
A|----------------|
E|----------------|


Outro
e|-------------|
B|-------------|
G|-4~---6~---8~|
D|-4~---6~---8~|
A|-2~---4~---6~|
E|-------------|

Tap to rate this tab
 
# A B C D E F G H I J K L M N O P Q R S T U V W X Y Z