Song name
# A B C D E F G H I J K L M N O P Q R S T U V W X Y Z

Automatic Loveletter - Let It Ride tab

Automatic Loveletter - Let It Ride
Tabbed by: sickparamour

Tuning: standard

e|-----0-0----|
B|----2-2-2---|
G|---1--------|
D|------------|x2
A|------------|
E|------------|

e|-----0-0----|
B|----2-2-2---|
G|---2--------|
D|------------|x2
A|------------|
E|------------|

e|-----4-4----|
B|----5-5-5---|
G|---4--------|
D|------------|x2
A|------------|
E|------------|

e|-----2-2----|
B|----4-4-4---|
G|---4--------|
D|------------|x2
A|------------|
E|------------|
Tap to rate this tab
# A B C D E F G H I J K L M N O P Q R S T U V W X Y Z