Song name
# A B C D E F G H I J K L M N O P Q R S T U V W X Y Z

Autopilot Off - Wide Awake tab

-------------------------------------------------------------------------------
			     WIDE AWAKE - Autopilot Off
-------------------------------------------------------------------------------
Tabbed by: Kenneth Owen
Email: RyteLA922@yahoo.com

Tuning: EADGBe

Intro:
e|----------------|
B|----------------|
G|----------------|
D|----------------|
A|4444444444444444|
E|2222222222222222| x2 palm muted

"I'm breaking promises..."
e|----------------------------------------------------------------|
B|----------------------------------------------------------------|
G|------------------7--7-7--7--7-7--4--4-4--4--4-4----------------|
D|--4--4-4--4--4-477777777777777774444444444444444--4--4-4--4-4222|
A|4444444444444444555555555555555522222222222222224444444444444222|
E|2222222222222222--------------------------------2222222222222000| x2

"Cause I don't know just what I need...
e|--------------------------------|
B|--------------------------------|
G|7-------9-----------------------|
D|7-7777779-9999994---------------|
A|5-5555557-7777774-44444444444222|
E|----------------2-22222222222000| x3

I'm wide awake...
e|----------------|
B|----------------|
G|7---------------|
D|7-7777772-------|
A|5-5555552-------|
E|--------0-------|

Pre-Verse
e|-----------------------------|
B|-----------------------------|
G|------------7-7-7-7-6-7--6---|
D|4--x-7-7--x-7-7-7-7-6-7--6---|
A|4--x-7-7--x-5-5-5-5-4-5--4---|
E|2--x-5-5--x------------------|

Guitar 2
e|-----------------------------|
B|-----------------------------|
G|------------7-7-7-7-7-7--7---|
D|4--x-7-7--x-x-x-x-x-x-x--x---|
A|4--x-7-7--x-5-5-5-5-5-5--5---|
E|2--x-5-5--x------------------| x4

Verse
"Medicine bottles laying empty...
e|----------------------------------------------------------------|
B|----------------------------------------------------------------|
G|----------------7-7-77777-7-77774-4-44444-4-4444----------------|
D|4-4-44444-4-44447-7-77777-7-77774-4-44444-4-44444-4-44444-4-4222|
A|4-4-44444-4-44445-5-55555-5-55552-2-22222-2-22224-4-44444-4-4222|
E|2-2-22222-2-2222--------------------------------2-2-22222-2-2000| x2

"Cause I don't know just what I need...
e|--------------------------------|
B|--------------------------------|
G|7-7777779-999999----------------|
D|7-7777779-9999994-44444444444222|
A|5-5555557-7777774-44444444444222|
E|----------------2-22222222222000| x3

I'm wide awake...
e|----------------|
B|----------------|
G|7-777777--------|
D|7-7777772-------|
A|5-5555552-------|
E|--------0-------|

...wide awake... I'm wide awake...
Guitar 1
e|-----------------------------|
B|-----------------------------|
G|------------7-7-7-7-6-7--6---|
D|4--x-7-7--x-7-7-7-7-6-7--6---|
A|4--x-7-7--x-5-5-5-5-4-5--4---|
E|2--x-5-5--x------------------|

Guitar 2
e|-----------------------------|
B|-----------------------------|
G|------------7-7-7-7-7-7--7---|
D|4--x-7-7--x-x-x-x-x-x-x--x---|
A|4--x-7-7--x-5-5-5-5-5-5--5---|
E|2--x-5-5--x------------------| x4

Break down
Guitar 1
e|----------------------------------------------------------------|
B|----------------------------------------------------------------|
G|----------------------------------------------------------------|
D|444-------------444-------------444-------------444----------2--|
A|444-------------444-------------444-------------444----------2--|
E|222-------------222-------------222-------------222----------0--|

Guitar 2
e|----------------------------------------------------------------|
B|----------------------------------------------------------------|
G|----7-7-7-7-77------7-7-7-7-99------7-7-7-7-77------7-7-7-7-99--|
D|----x-x-x-x-xx------x-x-x-x-xx------x-x-x-x-xx------x-x-x-x-xx--|
A|----5-5-5-5-55------5-5-5-5-77------5-5-5-5-55------5-5-5-5-77--|
E|----------------------------------------------------------------| x2

Guitar 1
e|----------------------------------------------------------------|
B|----------------------------------------------------------------|
G|----------------------------------------------------------------|
D|444-------------444-------------444-------------444-------------|
A|444-------------444-------------444-------------444-------------|
E|222-------------222-------------222-------------222-------------|

Guitar 2
e|----------------------------------------------------------------|
B|----------------------------------------------------------------|
G|----7-7-7-7-77------7-7-7-7-99------7-7-7-7-77------------------|
D|----x-x-x-x-xx------x-x-x-x-xx------x-x-x-x-xx------------------|
A|----5-5-5-5-55------5-5-5-5-77------5-5-5-5-55------------------|
E|----------------------------------------------------------------|

I'm breaking promises...
e|----------------------------------------------------------------|
B|----------------------------------------------------------------|
G|----------------7-7-77777-7-77774-4-44444-4-4444----------------|
D|4-4-44444-4-44447-7-77777-7-77774-4-44444-4-44444-4-44444-4-4222|
A|4-4-44444-4-44445-5-55555-5-55552-2-22222-2-22224-4-44444-4-4222|
E|2-2-22222-2-2222--------------------------------2-2-22222-2-2000|

e|----------------------------------------------------------------|
B|----------------------------------------------------------------|
G|----------------------------------------------------------------|
D|4-------------------------------------------------------44444222|
A|4-----------------------------------------------4444444444444222|
E|2-----------------------------------------------2222222222222000| 

"Cause I don't know just what I need...
e|--------------------------------|
B|--------------------------------|
G|7-7777779-999999----------------|
D|7-7777779-9999994-44444444444222|
A|5-5555557-7777774-44444444444222|
E|----------------2-22222222222000| x4

e|--------------------------------|
B|--------------------------------|
G|7-------------------------------|
D|7-------2-------4---------------|
A|5-------2-------4---------------|
E|--------0-------2---------------|

=======================================================
x = muted note
Tap to rate this tab
 
# A B C D E F G H I J K L M N O P Q R S T U V W X Y Z