Song name
# A B C D E F G H I J K L M N O P Q R S T U V W X Y Z

Autopilot Off - Cicadas Song tab

Here's my first tab guys. Some of the lead guitar parts are missing because I just can't 
them out. I'm a bit fuzzy on the rhythm guitar on the bridge, but I think what I've got 
correct. Leave me a comment if you've got any suggestions. :)

Bass Intro

Intro 1
"Down"
Guitar 1
-----------------------------|
-----------------------------|
-13-----11------9------8-----|
--x-8x---x-8x---x-8x---x-8x--| 2x
-11------9------7------6-----|
-----------------------------|

Guitar 2
On second repeat
-----------------------------|
-----------------------------|
---------4------6------8-----|
--6------4-8x---6-8x---8-8x--|
--6-8x---2------4------6-----|
--4--------------------------|


Verse 1
"Nowhere to hide..."
Guitar 1
-----------------------------|
-----------------------------|
-13------11------------------| 2x
--x-24x---x-8x---------------|
-11-------9------------------|
-----------------------------|

Guitar 2
-----------------------------|
-----------------------------|
-----------------------------| 2x
--6-------4------------------|
--6-24x---4-8x---------------|
--4-------2------------------|


Pre-Chorus 1
"Tell me are you listening..."
Guitar 2
-----------------------------|
-----------------------------|
-----------------------------|
--2-------4------------------|
--2-16x---4-16x--------------|
--0-------2------------------|


Chorus 1
"Tonight I have decided..."
Guitar 1 plays something using the intro-style notes (maybe?)

Guitar 2
-----------------------------|
-----------------------------|
---------4------6------8-----| 4x
--6------4-8x---6-8x---8-8x--|
--6-8x---2------4------6-----|
--4--------------------------|


Intro 2
Guitar 1
-----------------------------|
-----------------------------|
-13-----11------9------8-----| 2x
--x-8x---x-8x---x-8x---x-8x--|
-11------9------7------6-----|
-----------------------------|

Guitar 2
On second repeat
-----------------------------|
-----------------------------|
---------4------6------8-----|
--6------4-8x---6-8x---8-8x--|
--6-8x---2------4------6-----|
--4--------------------------|


Verse 2
"Under the knife..."
WTF is Guitar 1 doing here?

Guitar 2
-----------------------------|
-----------------------------|
-----------------------------| 2x
--6-------4------------------|
--6-24x---4-8x---------------|
--4-------2------------------|


Pre-Chorus 2
"Tell me are you listening..."
Guitar 2
-----------------------------|
-----------------------------|
-----------------------------|
--2-------4------------------|
--2-16x---4-16x--------------|
--0-------2------------------|


Chorus 2
"Tonight I have decided..."
Guitar 1 plays something using the intro-style notes (maybe?)

Guitar 2
-----------------------------|
-----------------------------|
---------4------6------8-----| 2x
--6------4-8x---6-8x---8-8x--|
--6-8x---2------4------6-----|
--4--------------------------|

Bridge
"And it landed..."
Guitar 2
------------------------------|
------------------------------|
--6------4--------------------|
--6-16x--4-16x----------------|
--4------2--------------------|
------------------------------|

------------------------------|
------------------------------|
--6------4------6-------------|
--6-16x--4-8x---6-8x----------|
--4------2------4-------------|
------------------------------|

------------------------------|
------------------------------|
------------------------------|
--6---------------------------|ring out
--6---------------------------|
--4---------------------------|

Chorus 2
"Tonight I have decided..."
Guitar 1 plays something using the intro-style notes (maybe?)

Guitar 2
-----------------------------|
-----------------------------|
---------4------6------8-----| 6x
--6------4-8x---6-8x---8-8x--|
--6-8x---2------4------6-----|
--4--------------------------|

Outro
Guitar 2
------------------------------|
------------------------------|
------------------------------|
--6---------------------------|ring out
--6---------------------------|
--4---------------------------|
Tap to rate this tab
 
# A B C D E F G H I J K L M N O P Q R S T U V W X Y Z