Song name
# A B C D E F G H I J K L M N O P Q R S T U V W X Y Z

Autopilot Off - Nothing Frequency tab

This is my first tab.

It's standard tuning.
Just follow the song for timing.


Intro/Chorus
E----------------------------------------------------------------------|
B----------------------------------------------------------------------|
G---77-----------------------------------------------------------------|
D---77-----------77------------55--------------------------------------|repeat
A---55-555555/7--77--555555/7--55--555555/7---999h10-777h9-5-----------|
E----------------55------------33--------------------------------------|


Verse
E----------------------------------------------------------------|
B----------------------------------------------------------------|
G----------------------------------------------------------------|
D---999x777x555555-----------------------------------------------|repeat
A---999x777x555555-----------------------------------------------|
E---777x555x333333-----------------------------------------------|

Pre-Chorus     "and all the frequencies are down...."
E|-------------------------|
B|-------------------------|
G|--1212121212121212121212-|
D|--x-x-x-x-x-x-x-x-x-x-x--|
A|--1010101010101010101010-|
E|-------------------------|

Interlude
E|-----------------------------------|
B|--(Palm Mute)----------------------|
G|--7-7-7-7-7-7-7-----7-7-7-7-7-7-7--|
D|--7-7-7-7-7-7-7--------------------|
A|--5-5-5-5-5-5-5--------------------|
E|-----------------------------------|
Tap to rate this tab
 
# A B C D E F G H I J K L M N O P Q R S T U V W X Y Z