Song name
# A B C D E F G H I J K L M N O P Q R S T U V W X Y Z

Autopilot Off - Missing The Innocence tab

Help us improve GuitareTab! Take a short survey!
The tab on here already is a good tab, just an incomplete solo.
This sounds just about perfect if you get the timing right. Good Song.

e|---------------------------------------------|
B|---------------------------------------------|
G|---9-11-13-----9-11-13----9-11-13----9-11-9--|
D|-9-----------9----------9----------9---------|
A|---------------------------------------------|
E|---------------------------------------------|

e|---------------------------------------------|
B|---------------------------------------------|
G|---9-11-13-----9-11-13----9-11-13----9-11-9--|
D|-9-----------9----------9----------9---------|
A|---------------------------------------------|
E|---------------------------------------------|

e|---------------------------------------------|
B|--------12----------12---------12------------|
G|---9-11--------9-11-------9-11-------9-11-9--|
D|-9-----------9----------9----------9---------|
A|---------------------------------------------|
E|---------------------------------------------|

e|---------------------------------------------|
B|--------12----------12---------12------------|
G|---9-11--------9-11-------9-11-------9-11-9--|
D|-9-----------9----------9----------9---------|
A|---------------------------------------------|
E|---------------------------------------------|
Related for Missing The Innocence tab