Guitaretab - guitar tabs
Song name
# A B C D E F G H I J K L M N O P Q R S T U V W X Y Z

Autopilot Off - Byron Black tab

Title: Byron Black
Artist: Autopilot Off
Album: Make A Sound

Tuning: E A D G B e


Guitar 1 [:00-:18]
e|----------------------------|
B|----------------------------|
G|--4-------------------------|
D|--x-------------------------|
A|--2--play throughout--------|
E|----------------------------|

Guitar 1 (cont.) [:18-:22]
e|---------------------------------|
B|---------------------------------|
G|---------------------------------|
D|--55555555555555-77777777777777--|
A|--55555555555555-77777777777777--|
E|--33333333333333-55555555555555--|
    .............. ..............
[ Tab from: http://www.guitaretab.com/a/autopilot-off/75473.html ]
Guitar 2 [:04-:18]
e|-----------------------------------------------------------|
B|-----------------------------------------------------------|
G|----------------------77----99999999999999----------77-----|
D|-------------99999999-77-77-99999999999999-99999999-77-77--|
A|--pickslide--99999999-55-77-77777777777777-99999999-55-77--|
E|-------------77777777----55----------------77777777----55--|

e|-----------------------------------------------------------|
B|-----------------------------------------------------------|
G|--------------------------77----99999999999999-------------|
D|--22222222222222-99999999-77-77-99999999999999-------------|
A|--22222222222222-99999999-55-77-77777777777777-------------|
E|--00000000000000-77777777----55----------------------------|


Guitar 3 [:14-:18]
e|-------------------------------------|
B|---------7--------7--------7---------|
G|--9-11-----9-11-----9-11-----9-11----|
D|-------9--------9--------9--------9--|
A|-------------------------------------|
E|-------------------------------------|

That was the best I could do. I could not figure out the last part before the words come 
around :22.
Related for Byron Black tab