Song name
# A B C D E F G H I J K L M N O P Q R S T U V W X Y Z

Autopilot Off - Voice In The Dark tab

Artist: Autopilot Off
Song: Voice in The Dark
Album: Make A Sound
Tuning: standard
Email: LiquIdfir3@msn.com

Rock On!

Intro & Verse (guitar 1)
e|---------------------------|
B|---------------------------|
G|---------------------------|
D|-----6-------6--------2----|
A|----6--6----6--6----2------|
E|---4-----4--------0--------|

Chorus:
e|----------------------------|
B|----------------------------|
G|------------4-4------6-6-6--|
D|---6---4----4-4------6-6-6--|
A|---6---4----2-2------4-4-4--|
E|---4---2--------------------|

 "Wait" "for" "you"  "faith is just a promise"
Tap to rate this tab
# A B C D E F G H I J K L M N O P Q R S T U V W X Y Z