Song name
# A B C D E F G H I J K L M N O P Q R S T U V W X Y Z

Autopsy - Horrific Obsession tab

AUTOPSY HORRIFIC OBSESSION TAB (BY EAR)

I learned this by ear, I didnt include the solos. I didnt feel like 
adding them in if there would be mistakes in them. I am still fairly 
new to tabbing by ear, so its just the rythm. 

Any comments or questions feel free to ask
         Aaron
AKA englundisgod/Jacksonkv
goosebumps.fan@hotmail.com




Tune - 2 Whole Steps Down to "C"

   INTRO  0:00   3x 
C |------------------------------------------------------------------------|
G |ALL--ALTERNATE--PICKED---------------ALL--ALTERNATE--PICKED-------------|
D#|------------------------------------------------------------------------|
A#|--------------------/5----/5------------------------------/5---/5-------|
F |-5-55-55-55-55-55-55---5~----4~-HOLD---5-55-55-55-55-55-55---5~---4~HOLD|
C |-3-33-33-33-33-33-33-------------6-----3-33-33-33-33-33-33------------6-|
                                  SLIDE                                SLIDE
                                  DOWN                                  DOWN

   VERSE   0:37                          0:48
C |------------------------------------------------------------------------|
G |----------------ALL--ALTERNATE--PICKED----------------------------------|
D#|----------------------------------------------------------------------|  
A#|------------------------------------------------------------------------|
F |55555555-44444444-33333333-22222222--55555555-44444444-33333333-22222222|
C |33333333-22222222-11111111-00000000--33333333-22222222-11111111-00000000|





   CHORUS    0:57   4x
C |------------------------------------------------------------------------|
G |------------------------------------------------------------------------|
D#|---------SLIGHT---------------------------------SLIGHT-----SLIGHT-------|
A#|----------HOLD-----------------------------------HOLD-------HOLD--------|
F |--2-2--4/5/4--2-4-5---(4-5)-/888888------2-2--4/5/4---2--4/5/3--333333--|
C |--0-0--2/3/2--0-2-3---(2-3)-/666666------0-0--2/3/2---0--2/3/1--111111--|
                PM              PMPMPM                             PMPMPM


   2ND VERSE   1:27                       1:37
C |------------------------------------------------------------------------|
G |----------------ALL--ALTERNATE--PICKED----------------------------------|
D#|----------------------------------------------------------------------|  
A#|------------------------------------------------------------------------|
F |55555555-44444444-33333333-22222222--55555555-44444444-33333333-22222222|
C |33333333-22222222-11111111-00000000--33333333-22222222-11111111-00000000|





   2ND CHORUS   1:48   4x
C |------------------------------------------------------------------------|
G |------------------------------------------------------------------------|
D#|---------SLIGHT---------------------------------SLIGHT-----SLIGHT-------|
A#|----------HOLD-----------------------------------HOLD-------HOLD--------|
F |--2-2--4/5/4--2-4-5---(4-5)-/888888------2-2--4/5/4---2--4/5/3--333333--|
C |--0-0--2/3/2--0-2-3---(2-3)-/666666------0-0--2/3/2---0--2/3/1--111111--|
                PM              PMPMPM                             PMPMPM





BREAKDOWN  2:18      1x
C |------------------------------------------------------------------------|
G |------------------------------------------------------------------------|
D#|------------------------------------------------------------------------|
A#|----------HOLD--------HOLD-------HOLD---------HOLD--HALF----------------|
F |-----------2-----------2-----------2------------2---BEND----------------|
C |-----------0---/8~~----0---/7~~----0---/6~~-----0---5b-r~~--------------|

   CTND    2:31      3x
C |------------------------------------------------------------------------|
G |------------------------------------------------------------------------|
D#|------------------------------------------------------------------------|
A#|----------HOLD-/10~~--HOLD-/9~~--HOLD--/8~~---HOLD--HALF----------------|
F |-----------2-----------2-----------2------------2---BEND----------------|
C |-----------0---/8~~----0---/7~~----0---/6~~-----0---5b-r~~--------------|
The above notes on the D string, are the high harmony. You can just play
octaves but really, Only the second guitar plays them



   VARIANT OF CTND RIFF  3:11
C |------------------------------------------------------------------------|
G |-------------HOLD-ALL-CHORDS-LET-NOTES-RING-----------------------------|
D#|------------------------------------------------------------------------|
A#|-----------------4---------4-----------------------4-------4------------|
F |--2----3----2----2----2----2---(3)--2----3----2----2---2---2---2--------|
C |--0----1----0---------0--------(1)--0----1----0--------0-------0--------|

   END OF BREAKDOWN   3:36
C |------------------------------------------------------------------------|
G |------------------HOLD-THIS-CHORD-AND-FADE-OUT-WITH---------------------|
D#|--HOLD---------VOLUME-KNOB-WHILE-CHRIS-HOLDS-HIS-SCREAM-----------------|
A#|----3-------------------------------------------------------------------|
F |----1-------------------------------------------------------------------|
C |------------------------------------------------------------------------|





   INSRUMENTAL BREAK  3:41   2x    2ND TIME GUITAR TWO JOINS IN
C |------------------------------------------------------------------------|
G |------------------------------------------------------------------------|
D#|--HOLD------------------------HOLD---------T-R-I-L-L-I-N-G--------------|
A#|---4----4-7--4h7p4---4--4h5p4--3----3h4-3h4p3h4p3h4p3h4p3h4p3h4--3------|
F |-------------------5------------------------------------------------5---|
C |------------------------------------------------------------------------|

   CTND  3:57   2x  CONTINUE ABOVE RIFF, GUITAR 2 PLAYS THIS HARMONY OVERTOP
C |------------------------------------------------------------------------|
G |--HOLD------------------------HOLD---------T-R-I-L-L-I-N-G--------------|
D#|---6----6-9--6h9p6---6--6h7p6--5----5h6-5h6p5h6p5h6p5h6p5h6p5h6--5------|
A#|-------------------7------------------------------------------------7---|
F |------------------------------------------------------------------------|
C |------------------------------------------------------------------------|



  SOLO RYTHM   4:11
C |------------------------------------------------------------------------|
G |-----REPEAT-ALOT--THIS-IS-FOR-BOTH SOLOS--------------------------------|
D#|------------------------------------------------------------------------|
A#|------------------------------------------------------END---------------|
F |------------------------------------------------------------------------|
C |----22222222-111-222-555544443333---------------------------------------|

Tap to rate this tab
# A B C D E F G H I J K L M N O P Q R S T U V W X Y Z