Guitaretab - guitar tabs
Song name
# A B C D E F G H I J K L M N O P Q R S T U V W X Y Z

Autopsy - Dark Crusade tab

-AUTOPSY - DARK CRUSADE from the "Mental Funeral" CD (c) 1991 Vile Music
-Transcribed by Chris Myhre. Version 1.1 Sept 2000 (ver 1.0 Feb 2000)
-For questions, corrections, etc email me: bowel_ripper@hotmail.com
-For best print edit the left/right margins in page setup to make the tab fit the sheet
-Tuning: two steps down (1:C, 2:G, 3:D#, 4:A#, 5:F, 6:C)
-Notation legend: h = hammer-on; . = palm mute; / = slide up; ~ = vibrato;
 br = half-bend and release; * = see note; " = tremolopick; ^ = semitone trill

1>|gtr 1 & 2---------------x4---------------------x4--riff A---------------------x4--riff B-
2>|-------------------------|---------------------|------------------------------|----------
3>|-------------------------|---------------------|------------------------------|----------
4>|----3"-------------------|-------------3/4-3/4-|------------------------------|----------
5>|2"--1"------2"-3"---4"---|3------------1/2-1/2-|6-6-6-6-6-5--5-5-4-4-4-4-3--3-|3-4-5-4-5-
6>|0"----------0"-1"---2"---|1---------1^---------|4-4-4-4-4-3--3-3-2-2-2-2-1--1-|1-2-3-2-3-
[ Tab from: http://www.guitaretab.com/a/autopsy/35652.html ]
		 * gtr 1 plays     ______
  ------x8------|--chord only-----|1-3  x4-------------------------------------------------|
  -------|------|--1st/2nd time----------'-------------------------------------------------|
  -------|repeat|------------------------'-------------------------------------------------|
  -------|riff A|*-----------------------'-------------------------------------------------|
  -6-5-6-|------|6|--6-7---5---4-5---3---'---3-4-2-----3-4-2-----3-4-2---3--3--4----2------|
  -4-3-4-|------|4|4-----3---2-----1---0-'1------0--1------0--1------0---1--3--4----0------|

				     ______ ______ (w/lead)		       _______
  |riff C---------------------------| 1,3  | 2   x4------|--------------------| 2,4  x4
  |-----------------------------------------------|------|----------------------------|
  |-----------------------------------------------|repeat|----------------------------|
  |--------------3-------------------2br----2~----|riff B|----------------------------|
  |2------3-5-6--1------2------6--3---------------|------|5------2------3------2------|
  |0------1-3-4-----1^--0------4--1---------------|------|3------2------1------0------|
					 ______ ________ ____________
  |-----x2------------------------------| 1    | 2, 4   |   3        |--------x4
  |------|---------------------------------------------------------------------|
  |repeat|---------------------------------------------------------------------|
  |riff C|---------------------------------------------------------------------|
  |------|----5-----3---0h1h2----5-----3-7/8-7---------------7/8-7/8--2--------|
  |------|00003-00001-01-----00003-00001-5/6-5--00001br--00005/6-5/6--0--------|
          ....  ....  ..     ....  ....         ....     ....

			   MENTAL FUNERAL
  |fade-out--------------||fade-in----------------------------|
  |----------------------||------------1010---------------10--| Pitches down about
  |----------------------||88--99--88--------88--99--88-------| half a tone and
  |----------------------||-----------------------------------| fades out
  |3-3--------3--2-------||------------------------------0----|
  |1-1-------------------||-----------------------------------|
Related for Dark Crusade tab