Song name
# A B C D E F G H I J K L M N O P Q R S T U V W X Y Z

Autovein - Useless Acoustic tab

Song: Autovein - Useless (Acoustic) (www.autoveinmusic.com)
Tabbed by: Tibbts
Notes: Tabbed this off of the acoustic video on YouTube.

Drop D tuning

[Intro / Fill (x4)]:

e-------------------------------------|
B-------------------------------------|
G-------------------------------------|
D-------------7---7---2-4\5-----------|
A---5-5-5-5-5-5-5-0-0-2-4\5-5-5-4-4---|
D---0-0-0-0-4---5---0-2-4\5-5-5-4-4---|

Then throw in one of these (and let it ring a bit):

e-----
B-----
G--7--
D--7--
A--5--
D--0--

[Verse (x4)]:

e-----------|
B-----------|
G-----------|
D--7--7--7--|
A--5--5--5--|
D--4--5--0--|

The last time around, play, skip the last note and
go right into the chorus:

Chorus:

e---------------2------------|
B---------------3------------|
G--7--7--4--4---2--7--4--4---|
D--7--7--4--5---0--7--4--5---|
A--5--5--2--5---0--5--2--5---|
D--0--5--2--0---0--5--2--0---|

[Fill (x2)]
[Verse (x4)]
[Chorus (x1)]

[Bridge x3]:

e---9--5--2---|
B---9--5--3---|
G---9--5--2---|
D---9--7--0---|
A---9--7--0---|
D---9--5--0---|

On the 3rd one, don't play the last chord, but play

e--7--
B--7--
G--7--
D--7--
A--7--
D--7--

Now play the chorus twice (two full choruses), slightly modified.
Here's the whole thing:

e---------------2------------2------------2------------|
B---------------3------------3------------3------------|
G--7--7--4--4---2--7--4--4---2--7--4--4---2--7--4--4---|
D--7--7--4--5---0--7--4--5---0--7--4--5---0--7--4--5---|
A--5--5--2--5---0--5--2--5---0--5--2--5---0--5--2--5---|
D--0--5--2--0---0--5--2--0---0--5--2--0---0--5--2--0---|

Play the first 4 chords quietly, and really bang in on the rest.

[Fill (x2)]

and end with

e--3--
B--2--
G--3--
D--0--
A-----
D-----
Tap to rate this tab
 
# A B C D E F G H I J K L M N O P Q R S T U V W X Y Z