Song name
# A B C D E F G H I J K L M N O P Q R S T U V W X Y Z

Autumns End - Scars From The Candle tab

e----------------------------------------|
b-------------------------7---8----------|
g---7-7-9-7-5-7-----7---7----------------|
d----0-0--------0-0---0-----0--0---------|
a----------------------------------------|
E----------------------------------------|

e----------------------------------------|
b----------------------------------------|
g---7-7-9-7-5-7---5p7p5-3p5p3-2----------|
d----0-0--------0------------------------|
a----------------------------------------|
E----------------------------------------|

Repeat 4X
Tap to rate this tab
 
# A B C D E F G H I J K L M N O P Q R S T U V W X Y Z