Avail - Not A Happy Man tab

e|---3--------3------3-------3-----|
B|---3--------3------3-------3-----|
G|---0--------0------0-------2-----|
D|---0--------2------0------ 0-----|
A|---2--------3------2-------------|
E|---3---------------3-------------|

e|--3------------------------------|
B|--3------------------------------|
G|--0------------------------------|
D|--0------------------------------|
A|--2------------------------------|
E|--3------------------------------|

e|--3------3-----3------3----------|
B|--3------3-----3------3----------|
G|--0------0-----0------0----------|
D|--0------2-----0------2----------|
A|--2------3-----2------2----------|
E|--3------------3-----------------|

e|---3------3--------3-------3-----|
B|---3------3--------3-------3-----|
G|---0------0--------0-------2-----|
D|---0------2--------0-------0-----|
A|---2------3--------2-------------|
E|---3---------------3-------------|

e|---3----3------------------------|
B|---3----3------------------------|
G|---0----0------------------------|
D|---0----0------------------------|
A|---2----2------------------------|
E|---3----3------------------------|
Tap to rate this tab
 
# A B C D E F G H I J K L M N O P Q R S T U V W X Y Z