Avail - Fca tab

Intro/Verse 
e------------------------------|
B------------------------------|
G----7-7-7--10-10-10-----------|
D----7-7-7--10-10-10-----------|
A----5-5-5---8--8--8-----------|
E------------------------------|

Chorus
e-------------------------------|
B-------------------------------|
G---------------5-5-5-5-5-------|
D----3-3-3-3-3--5-5-5-5-5-------|
A----3-3-3-3-3--3-3-3-3-3-------|
E----1-1-1-1-1------------------|
    p.m.------------------------|

The part at the end of the chourses uses only the D5 and F5 chords like 
in the verse
Tap to rate this tab
 
# A B C D E F G H I J K L M N O P Q R S T U V W X Y Z