Song name
# A B C D E F G H I J K L M N O P Q R S T U V W X Y Z

Avail - Pinned Up tab

Intro(4x):
e|-------------------------------------------------------------------|
B|--1-----1----------------------------------------------------------|
G|--0--2--0--2-------------------------------------------------------|
D|--2--2--2--2--3-3-3-3-3-3------------------------------------------|
A|--3--0--3--0--3-3-3-3-3-3------------------------------------------|
E|--------------1-1-1-1-1-1------------------------------------------|

Verse:          Bend 1/2 step
e|-------------------------------------------------------------------|
B|-------------------------------------------------------------------|
G|---------5-5---4^5-------------------------------------------------|
D|--7--7-7-5-5-5-----------------------------------------------------|
A|--7--7-7-3-3-5-----------------------------------------------------|
E|--5--5-5-----3-----------------------------------------------------|

Chorus:
e|-------------------------------------------------------------------|
B|--1---1---1--------------------------------------------------------|
G|--0-2-0-2-0--------------------------------------------------------|
D|--2-2-2-2-2--------------------------------------------------------|
A|--3-0-3-0-3--------------------------------------------------------|
E|-------------------------------------------------------------------|

"let me get my, let me get my......" Then end that with D a few times
                                       D
e|-------------------------------------------------------------------|
B|-------------------------------------------------------------------|
G|-----5---2----2----------------------7-----------------------------|
D|--7--5--4-4--4-4---------------------7-----------------------------|
A|--7--3-2----2------------------------5-----------------------------|
E|--5----------------------------------------------------------------|

Note: your gunna have to figure the rythm out for yourself its really not 
that hard to do once you have the chords. also for the intro and the chorus 
it may be easier just to use a C5 (power chord), but this way sounds better. 
Tap to rate this tab
 
# A B C D E F G H I J K L M N O P Q R S T U V W X Y Z