Song name
# A B C D E F G H I J K L M N O P Q R S T U V W X Y Z

Avail - Order tab

Intro
e|--22-0-22-0-22-0-22-0-22-0-22-0-22-----|
B|--33-3-33-3-33-3-33-3-33-3-33-3-33-----|
G|--44-4-44-4-44-4-44-4-44-4-44-4-44-----|
D|--44-4-44-4-44-4-44-4-44-4-44-4-44-----|
A|---------------------------------------|
E|---------------------------------------|

Verse 1
e|-----------------------------------------|
B|-----------------------------------------|
G|-----------------------------------------|
D|--44444444-55555555----------77777777----|
A|--22222222-33333333--55555555-55555555---|
E|--------------------33333333-------------|

Bridge 1
e|--22-0-22-0-22-0-22-0---------------|
B|--33-3-33-3-33-3-33-3---------------|
G|--44-4-44-4-44-4-44-4---------------|
D|--44-4-44-4-44-4-44-4---------------|
A|------------------------------------|
E|------------------------------------|

Chorus 1
e|------------------------------------|
B|------------------------------------|
G|------------------------------------|
D|----------5-55-555---------5-55-555-|
A|--2-2-2-2-3-33-333-7-7-7-7-3-33-333-|
E|--0-0-0-0----------5-5-5-5----------|

Bridge 2
e|-----------------------------------------|
B|-----------------------------------------|
G|-----------------------------------------|
D|-----------------------------------------|
A|--22222222222222222222222222222222-------|
E|--00000000000000000000000000000000-------|

Chorus 2
e|------------------------------------|
B|------------------------------------|
G|------------------------------------|
D|----------5-55-55---------5-55-55---|
A|--2-22-22-3-33-33-7-77-77-3-33-33---|
E|--0-00-00---------5-55-55-----------|


Intro
Verse 1-2x
Intro
Verse 1-2x
Bridge 1
Chorus
Bridge 2
Chorus 2
Bridge 1
Verse 1-2x
Chorus 1
Intro
Tap to rate this tab
 
# A B C D E F G H I J K L M N O P Q R S T U V W X Y Z