Guitaretab - guitar tabs
Song name
# A B C D E F G H I J K L M N O P Q R S T U V W X Y Z

Avail - Fifth Wheel tab

-----------------------------------------------------------------------------
			     FIFTH WHEEL - Avail
-----------------------------------------------------------------------------
Tabbed by:chris
Email:youngchris03@hotmail.com

Tuning: E

Verse

e|-------------------|
B|-------------------|
G|------9---7--------|
D|--7---9---7----7---| x2
A|--7---7---5----7---|
E|--5------------5---|

Pre Chorus

e|------------------|
B|------------------|
G|--7-------7----9--|
D|--7---7---7----9--| x1
A|--5---7---5----7--|
E|------5-----------|

Chorus
[ Tab from: http://www.guitaretab.com/a/avail/54885.html ]
e|-----------------------------|
B|-----------------------------|
G|------7-------7-------7---9--|
D|--7---7---7---7---7---7---9--|  x2
A|--7---5---7---5---7---5---7--|
E|--5-------5-------5----------|

Break

e|-------------------|
B|-------------------|
G|-------7----9------|
D|---7---7----9------|
A|---7---5----7------|  x4
E|---5---------------|

Ending

e|-------------------|
B|-------------------|
G|--9---7---6--------|
D|--9---7---6----7---|
A|--7---5---4----7---|
E|---------------5---|

verse
pre chorus
chorus
verse
pre chorus
chorus
break
verse
pre chorus
chorus
chorus
chorus
ending
=============================================================================
Related for Fifth Wheel tab
×
Fifth Wheel