Song name
# A B C D E F G H I J K L M N O P Q R S T U V W X Y Z

Avalanch - Alas De Cristal chords

Highlighted       Show chord diagrams
Avalanch - Alas de cristal

Chord
   A#  C Dm  D# F  Fm G  G# 
E|--6--3--5--6--1--1--3--4--------------------| 
B|--6--5--6--8--1--1--3--4--------------------|
G|--7--5--7--8--2--1--4--5--------------------|
D|--8--5--7--8--3--3--5--6--------------------|
A|--8--3--5--6--3--3--5--6--------------------|
E|--6--3--5--6--1--1--3--4--------------------|


E|-----------------------------------| 2x
B|--6~--6-5--------6-5---6-5---6-5---|
G|-----5------7---------5-----5------|
D|-----------------------------------|
A|-----------------------------------|
E|-----------------------------------|

Am     G             F
  Aprendiste a disfrutar,
Am      G            Dm
  las caricias de la vida,
Am      G          F
  sin pararte a pensar,
     A#            Dm      C      A# G
el dolor que podría ser, caer.

Cm          G#          A#                 D#
  Querías volar sobre augurios de un cielo gris
Cm          G#      A#                  D#-A#-Cm
  Querías volar caminar no era digno de ti.
Cm          G#        Fm       G
  Querías volar y tu sueño se truncó.
      G#         A#   C  F
Se quebraron tus alas de cristal.

F -C - Dm - A#       C       F
            Tus alas de cristal.

F - C - Dm -A# - C


Am          G            F
  Siente el viento en tu cara,
Am          G           Dm
  y el gran sol a tus espaldas,
Am          G              F
  crees que no es digno de ti,
  A#              Dm       C        A# G
hacer el camino a pie como uno más.


Cm          G#          A#                 D#
  Querías volar sobre augurios de un cielo gris
Cm          G#      A#                  D#-A#-Cm
  Querías volar caminar no era digno de ti.
Cm          G#        Fm        G
  Querías volar y tu sueño se truncó.
      G#         A#          C  F
Se quebraron tus alas de cristal.

F- C - Dm -     A#       C       F
                Tus alas de cristal.
F- C - Dm -     A#       C       F
                Tus alas de cristal.
F- C - Dm - A# - C - F
Tap to rate this tab
 
# A B C D E F G H I J K L M N O P Q R S T U V W X Y Z