Song name
# A B C D E F G H I J K L M N O P Q R S T U V W X Y Z

Avalanche City - The Silence Acoustic tab

Tuning is half a step down
It's the same all the way through, simply repeat!

This is a basic tab, however if you listen to the song you can pick up on the strumming pattern.
 
       D U  D U    D U  D U    D U  D U    D U  D U
eb|----3-3--3-3----3-3--3-3----3-3--3-3----3-3--3-3--|
Bb|----3-3--3-3----3-3--3-3----3-3--3-3----3-3--3-3--|
Gb|-0--0-0--0-0-0--0-0--0-0--------------------------|
Db|-------------------------2--2-2--2-2-2--2-2--2-2--|
Ab|--------------------------------------------------|
Eb|--------------------------------------------------|

       D U  D U    D U  D U    D U  D U    D U  D U
eb|----3-3--3-3----3-3--3-3----3-3--3-3----3-3--3-3--|
Bb|----3-3--3-3----3-3--3-3----3-3--3-3----3-3--3-3--|
Gb|-------------------------------------2--2-2--2-2--|
Db|-------------------------0--0-0--0-0--------------|
Ab|-3--3-3--3-3-3--3-3--3-3--------------------------|
Eb|--------------------------------------------------|
Tap to rate this tab
# A B C D E F G H I J K L M N O P Q R S T U V W X Y Z