Song name
# A B C D E F G H I J K L M N O P Q R S T U V W X Y Z

Avalanche City - You And I tab

Song: You and I
Band: Avalanche City
Album: Our New Life Above the Ground
Tuning: Standard

Capo:8

1 guitar just does this for a lot of the song.

e|------------------------------------------|
B|------------------------------------------|
G|------2---2--2---4p2----------------------|
D|------2---2--2---2------------------------|
A|----0---0---0--0--------------------------|
E|------------------------------------------|

While another does these Chords

Intro: A5

A5                   F#
If you had an empty suitcase
I'd help you to pack it tight
and if you were afraid of darkness
Well I'd stay 'til it was light
 
 That little riff that plays before the end.
 
e|-----------------2-0-0--0-0---------------------|
B|------------0-3-----------------0-3-------------|
G|------2--2-----------------2--2------2-2-2-2-2-2|
D|------------------------------------------------|
A|------------------------------------------------|
E|------------------------------------------------|


   A5               F#        A5
Cos I believe that you are all I want
 A5                 F#      A5
Cos I believe that you and I belong

Chords:

   A5                F#
e|------|       e|---2---|
B|------|       B|---2---|
G|---2--|       G|---2---|          
D|---2--|       D|---4---|
A|---0--|       A|-------|
E|------|       E|-------|


All chord and notes relative to Capo.
Tap to rate this tab
# A B C D E F G H I J K L M N O P Q R S T U V W X Y Z