Song name
# A B C D E F G H I J K L M N O P Q R S T U V W X Y Z

Avalon Drive - At War With Butterflies tab

----------------------------------------------------
AT WAR WITH BUTTERFLIES - Avalon Drive
----------------------------------------------------
Tabbed by: Spaz
Email: gravatious@gmail.com

Tuning: Standard

This is from Avalon Drive's self-titled EP. It's my first tab, so sorry that it's messy. 
not perfect - but it's enough to get you started.


INTRO/VERSE:
e|------------0----------------------------------0---------------|
B|------0------------0--------------0----------------------------|
G|--6-----6-----6------6--------6-----6-------6-----6---6--------|
D|9---9-----9-----9------9--------9-----9-------9-----9----------|
A|----------------------------9----------------------------------|
E|------------------------------------------9--------------------|

CHORUS:
e|-x-x---x---x-x---x-x-------------------------------------------|
B|-x-x---x---x-x---x-x-------------------------------------------|
G|-x-x---7---x-x---x-x-------------------------------------------|
D|-4-4---7---9-7---4-4-------------------------------------------|
A|-4-4---5---9-7---4-4-------------------------------------------|
E|-2-2---x---7-5---2-2-------------------------------------------|
You can figure out the strumming pattern yourself, it's rather simple.


BRIDGE:
e|--x-x--x-x-x-x---x-x--x-x-x-x---x-x--x-x-x-x--x-x--x-x-x-------|
B|--x-x--x-x-x-x---x-x--x-x-x-x---x-x--x-x-x-x--x-x--x-x-x-------|
G|--x-x--x-x-x-x---x-x--x-x-x-x---x-x--x-x-x-x--x-x--x-x-x-------| X2
D|-/4-4--x-x-x-0--/4-4--x-x-x-0--/4-4--x-x-x-0--7-7--2-2-2-------|
A|-/4-4--x-x-x-0--/4-4--x-x-x-0--/4-4--x-x-x-0--7-7--2-2-2-------|
E|-/2-2--x-x-x-0--/2-2--x-x-x-0--/2-2--x-x-x-0--5-5--0-0-0-------|

That's pretty much all there is to it. This is my own interpretation - so it's not 
what Wil plays, but it works.

Enjoy =)
www.avalondrive.com


| /  slide up
| \  slide down
| h  hammer-on
| p  pull-off
| ~  vibrato
| +  harmonic
| x  Mute note
Tap to rate this tab
# A B C D E F G H I J K L M N O P Q R S T U V W X Y Z