Song name
# A B C D E F G H I J K L M N O P Q R S T U V W X Y Z

Avantasia - Reach Out For The Light tab

Reach Out for the Light Intro - Avantasia
Tabbed by: Hobo Gt

This is my favorite part of the song, So I decided to tab it.

Tune half step down


E|---------------------------------------------------------------------------------|
B-17-14~-----12~---17-19-16~--12------------12-14-16--17--14~----12~-17-19-16------|
G|---------13----------------------11-13---14--------------------13----------------|
D|---------------------------------------------------------------------------------|
A|---------------------------------------------------------------------------------|
E|---------------------------------------------------------------------------------|

E|----------------------------------------------------------11h14p11---------------|
B|-12------------12-14-16--17--14~---12~-17-19-16~-12---12----------12-------------|
G|----11-13---14-------------------13-----------------/11---------------11-11h13p--|
D|---------------------------------------------------------------------------------|
A|---------------------------------------------------------------------------------|
E|---------------------------------------------------------------------------------|

E|---------------------------------------------------------------------------------|
B|---------------------17--14~----12~-17-19-16~-12---------------------------------|
G|-11---------------------------13-------------------------------------------------|
D|----13-11h13p11--------------------------------------------16-18-19----------16--|
A|----------------14~------------------------------/16-18-19----------16-18-19-----|
E|---------------------------------------------------------------------------------|


E|-----------------------16-17-19^-19^r(19)-19^----|
B|--------------16-18-19---------------------------|
G|--------16-18------------------------------------|
D|-18-19-------------------------------------------|
A|-------------------------------------------------|
E|-------------------------------------------------|
Tap to rate this tab
# A B C D E F G H I J K L M N O P Q R S T U V W X Y Z