Song name
# A B C D E F G H I J K L M N O P Q R S T U V W X Y Z

Avantasia - Twisted Mind tab

Avantasia - Twisted Mind - Intro

E------------------------------------------| x2 (Play twice)
B------------------------------------------|
G-----------------6-7-9-7-6----------------|
D--7-7-8-7-6-7--7-4-5-7-5-4-8-7-7-8-7-6-7--|
A--5-5-6-5-4-5--5-----------6-5-5-6-5-4-5--|
E------------------------------------------|


E--------------------------------------------| x2 (second time without the last note)
B--------------------------------------------|
G--7-7-8-7-6-7--7-6-7-9-7-6-8-7-7-8-7-6-7---7|
D--7-7-8-7-6-7--7-4-5-7-5-4-8-7-7-8-7-6-7----|
A--5-5-6-5-4-5--5-----------6-5-5-6-5-4-5----|
E--------------------------------------------|

E-----------------| 
B-----------------|
G-5-5-5-5-8-8-8-8-|
D-5-5-5-5-8-8-8-8-|
A-3-3-3-3-6-6-6-6-|
E-----------------| 



E-----------------------------------------|
B-----------------------------------------|
G--7-7-8-7-6-7--7-6-7-9-7-6-8-7-7-8-7-6-7-|
D--7-7-8-7-6-7--7-4-5-7-5-4-8-7-7-8-7-6-7-|
A--5-5-6-5-4-5--5-----------6-5-5-6-5-4-5-|
E-----------------------------------------|


E------------------|
B------------------|
G------------------|
D--7-7-7-7-7-7-7-7-|
A--5-5-5-5-5-5-5-5-|
E------------------|


E--------------------------------------------------|
B--------------------------------------------------|
G--7-7-8-7-6-7--7-6-7-9-7-6-8-7-7-8-7-6-7--5----8--|
D--7-7-8-7-6-7--7-4-5-7-5-4-8-7-7-8-7-6-7--5----8--|
A--5-5-6-5-4-5--5-----------6-5-5-6-5-4-5--3----6--|
D--------------------------------------------------|


This is my first tab. I tabbed it by ear. Any Questions?
Email: Snabbmanga@hotmail.com

Tab written by Emil Isaksson
Tap to rate this tab
 
# A B C D E F G H I J K L M N O P Q R S T U V W X Y Z