Song name
# A B C D E F G H I J K L M N O P Q R S T U V W X Y Z

Avantasia - Runaway Train tab

Please listen to the song for timing.. I'm not 100% sure about all the fast parts, but 
least it sounds decent when I play it.. If you have any corrections, please contact me! :)

I also have to mention that the last part of the solo is double, but I have only 
one of the parts.. If you have the other, please contact me! ;)

------------------------------11-11h13h16-16-16-15-13--15p13--15-|
---------------------9-9-9-11------------------------16-----16---|
-7-8-10----------------------------------------------------------|
--------8---8-10p8--8--------------------------------------------|
----------10------10----------------- ---------------------------|
-----------------------------------------------------------------|

-15p13--13-11-15-13p11h13-18------------------------------------------------|
------16---------------------15-16-15---------------------------------------|
--------------------------------------17-15-17-15---------------------------|
--------------------------------------------------17-15-17-15---------------|
--------------------------------------------------------------17-15-17-15---|
-------------------------------------------------------------------------18-|

---16--16-18--18-22b24-22b24-20-18-16-15---15-16---15-16---15-16----|
-16--16-----16---------------------------18-----18-------18-----18--|
--------------------------------------------------------------------|
--------------------------------------------------------------------|
--------------------------------------------------------------------|
--------------------------------------------------------------------|

-16-14-14-13-14-13--------------------------------------------------|
------------------15-13-15-13---------------------------------------|
--------------------------------------------------------------------|
--------------------------------------------------------------------|
--------------------------------------------------------------------|
Tap to rate this tab
 
# A B C D E F G H I J K L M N O P Q R S T U V W X Y Z