Song name
# A B C D E F G H I J K L M N O P Q R S T U V W X Y Z

Avantasia - Scales Of Justice tab

-------------------------------------------------------------------------------
			     Scales of Justice - Avantasia
-------------------------------------------------------------------------------
Tabbed by:Walter Faber
Email:

Tuning:D Standard

Fucking great song. Intro sounds right to my ears, maybe someone feels inspired to continue.

e|-------------------------------------------------------------|
B|-------------------------------------------------------------|
G|-------------------------------------------------------------|
D|-------2----3------2----3-----0------------------------------|
A|-------2----3------2----3-----0------------------------------|
E|--0000--0000--0000--0000--0000-------------------------------|

e|-------------------------------------------------------------|
B|-------------------------------------------------------------|
G|-------------------------------------------------------------|
D|-------2----3------0----0-----2------------------------------|
A|-------2----3------0----0-----3------------------------------|
E|--0000--0000--0000--0000--0000-------------------------------|

e|-------------------------------------------------------------|
B|-------------------------------------------------------------|
G|-------------------------------------------------------------|
D|-------2----3------2----3-----0--2--4---------2-----ah3------|
A|-------2----3------2----3-----0--3--2---------2--------------|
E|--0000--0000--0000--0000--0000-----------0000---0000---------|


************************************

| /   slide up
| \   slide down
| h   hammer-on
| p   pull-off
| ~   vibrato
| +   harmonic
| x   Mute note
| b   Bend
| pb  Pre-bend
| br  Bend release
| pbr Pre-bend release
| brb Bend release bend

************************************
Tap to rate this tab
 
# A B C D E F G H I J K L M N O P Q R S T U V W X Y Z