Avantasia - Blizzard On A Broken Mirror tab

|-13-16-18-------------------------------|
|----------14-14-16-18----------16-------|
|----------------------18-18-13----17-17-|
|----------------------------------------|
|----------------------------------------|
|----------------------------------------|

|-13-16-18---------------------------------------------|
|----------14-14-14-16-18-18h19p18-14-16-14-13---------|
|----------------------------------------------15-13---|
|---------------------------------------------------15-|
|------------------------------------------------------|
|------------------------------------------------------|

|-13-16-18-21-18-21b23-21-16/18-16-14-------------------------------------|
|-------------------------------------18-16-14-------18----16-18-19-18-16-|
|----------------------------------------------17-15----18----------------|
|-------------------------------------------------------------------------|
|-------------------------------------------------------------------------|
|-------------------------------------------------------------------------|

Please listen to the song for timing. The solo is pretty straight forward, so getting 
the timing right shouldn't be very hard.
Tap to rate this tab
 
# A B C D E F G H I J K L M N O P Q R S T U V W X Y Z