Song name
# A B C D E F G H I J K L M N O P Q R S T U V W X Y Z

Avantasia - Toy Master tab

INTRO

D#-------------------------------------------------------------------|
A#-----------8--7~----------8--7--10~--------------------------------|
F#--7-8---7---------7-8---7------------------------------------------|
C#------10--------------10-------------------------------------------|
G#-------------------------------------------------------------------|
D#-------------------------------------------------------------------|

OR

D#-------------------------------------------------------------------|
A#-------------------------------------------------------------------|
F#--------------7---6----------------7---6---9-----------------------|
C#-7--8--5--7---5---4---7--8--5--7---5---4---7-----------------------|
G#-5--6--3--5-----------5--6--3--5-----------------------------------|
D#-------------------------------------------------------------------|

RIFF

D#-------------------------------------------------------------------|
A#-------------------------------------------------------------------|
F#-------------------------------------------------------------------|
C#-7/8/7---7/8/7---5--7--8---7/8/7---7/8/7---5--7--8---7/8/7---7/8/7-|
G#-5/6/5---5/6/5---3--5--6---5/6/5---5/6/5---3--5--6---5/6/5---5/6/5-|
D#-------------------------------------------------------------------|

D#-------------------------------------------------------------------|
A#-------------------------------------------------------------------|
F#---------------------------7--6--3---------------------------------|
C#-5--7--8---7/8/7---7/8/7---5--4--1---------------------------------|
G#-3--5--6---5/6/5---5/6/5-------------------------------------------|
D#-------------------------------------------------------------------|

--- REPEAT RIFF

Donít you ...                                                          ... profound.
D#-------------------------------------------------------------------|
A#-------------8--7--------------------------------------------------|
F#------------------8--7~--------------------------------------------|
C#-------------------------------------12--11-8----------------------|
G#-------------------------------------10--9--6----------------------|
D#-------------------------------------------------------------------|

They used to dream in only black and white.
D#-------------------------------------------------------------------|
A#-------------------------------------------------------------------|
F#-------------------------------------------------------------------|
C#--------------7/8/7---7/8/7---5-7-8---7/8/7---7/8/7---5-7-8--------|
G#--10---9------5/6/5---5/6/5---3-5-6---5/6/5---5/6/5---3-5-6--------|
D#--8----6-----------------------------------------------------------|

Canít you hear them scream, drowning in the tide?
D#-------------------------------------------------------------------|
A#-------------------------------------------------------------------|
F#-------------------------------------------------------------------|
C#------------------------8------------------------------------------|
G#--10--------------8-----6---------8--------------------------------|
D#--8---------------6---------------6--------------------------------|
BRIDGE

Out ...           ...  in their eyes ...   ... sorry sight.
D#-------------------------------------------------------------------|
A#-------------------------------------------------------------------|
F#-------------------------------------------------------------------|
C#------------------------------5--7--8------------------------------|
G#--8------------4--------------3--5--6----8-------------------------|
D#--6------------2-------------------------6-------------------------|

... pay for a smile?
D#-------------------------------------------------------------------|
A#-------------------------------------------------------------------|
F#-------------------------------------------------------------------|
C#------7/8/7---7/8/7---7----7/8/7---7/8/7----5--7--8----------------|
G#------5/6/5---5/6/5---5----5/6/5---5/6/5----3--5--6----------------|
D#-------------------------------------------------------------------|

CHORUS

I am the ... all you girls and boys                               are welcome ...  wonderland
D#-------------------------------------------------------------------|
A#-------------------------------------------------------------------|
F#-------------------------------------------------------------------|
C#----------------------------------------------0-0x-----------------|
G#---5/6/5-[X2]-3-5x---5/6/5-[X2]-5-5x--3-3x----0-0x-------(3--5--6)-|
D#---3/4/3------5-3x---3/4/3------3-3x--1-1x---------------(1--3--4)-|

I am the ...          paint the void                        welcome to my world   to my 
dream factory.
D#-------------------------------------------------------------------|
A#-------------------------------------------------------------------|
F#-------------------------------------------------------------------|
C#-------------------------------------------------0-----------------|
G#---5/6/5-[X2]---5-5x--5/6/5-[X2]---5-5x--3-3x----0-----------------|
D#---3/4/3--------3-3x--3/4/3--------3-3x--1-1x----------------------|

Say hello ... cane.
D#-------------------------------------------------------------------|
A#------------------------------------------------------------8-7----|
F#----------------------------------------------------------------8-7|
C#-7/8/7--7/8/7---7/8/7--7/8/7---5-7-8---7/8/7--7/8/7---7/8/7--------|
G#-5/6/5--5/6/5---5/6/5--5/6/5---3-5-6---5/6/5--5/6/5---5/6/5--------|
D#-------------------------------------------------------------------|

The deeper ... plaints.
D#-------------------------------------------------------------------|
A#-------------------------------------------------------------------|
F#-------------------------------------------------------------------|
C#-7/8/7--7/8/7---7/8/7--7/8/7---5-7-8---7/8/7--7/8/7---7/8/7--7/8/7-|
G#-5/6/5--5/6/5---5/6/5--5/6/5---3-5-6---5/6/5--5/6/5---5/6/5--5/6/5-|
D#-------------------------------------------------------------------|
                               If only I had a heart it would break, oh sure.
D#-------------------------------------------------------------------|
A#-------------------------------------------------------------------|
F#-------------------------------------------------------------------|
C#----12-11-8---------7/8/7---7/8/7---5-7-8---7/8/7---7/8/7---5-7-8--|
G#----10-9--6-10--9---5/6/5---5/6/5---3-5-6---5/6/5---5/6/5---3-5-6--|
D#------------8---6--------------------------------------------------|
And I wonder how much more they can take.
D#-------------------------------------------------------------------|
A#-------------------------------------------------------------------|
F#-------------------------------------------------------------------|
C#------------------------8------------------------------------------|
G#--10--------------8-----6---------8--------------------------------|
D#--8---------------6---------------6--------------------------------|

BRIDGE

Out ...           ...  in their eyes ...   ... sorry sight.
D#-------------------------------------------------------------------|
A#-------------------------------------------------------------------|
F#-------------------------------------------------------------------|
C#------------------------------5--7--8------------------------------|
G#--8------------4--------------3--5--6----8-------------------------|
D#--6------------2-------------------------6-------------------------|

... pay for a smile?
D#-------------------------------------------------------------------|
A#-------------------------------------------------------------------|
F#-------------------------------------------------------------------|
C#------7/8/7---7/8/7---7x---7/8/7---7/8/7----5--7--8----------------|
G#------5/6/5---5/6/5---5x---5/6/5---5/6/5----3--5--6----------------|
D#-------------------------------------------------------------------|

CHORUS

I am the ... all you girls and boys                               are welcome ...  wonderland
D#-------------------------------------------------------------------|
A#-------------------------------------------------------------------|
F#-------------------------------------------------------------------|
C#----------------------------------------------0-0x-----------------|
G#---5/6/5-[X2]-3-5x---5/6/5-[X2]-5-5x--3-3x----0-0x-------(3--5--6)-|
D#---3/4/3------5-3x---3/4/3------3-3x--1-1x---------------(1--3--4)-|

I am the ... paint the void                                               welcome to   
my world.
D#-------------------------------------------------------------------|
A#-------------------------------------------------------------------|
F#-------------------------------------------------------------------|
C#----------------------------------------------0-0x-----------------|
G#---5/6/5-[X2]-3-5x---5/6/5-[X2]-5-5x--3-3x----0-0x-------(3--5--6)-|
D#---3/4/3------5-3x---3/4/3------3-3x--1-1x---------------(1--3--4)-|

I am dealing                                                                        
welcome to   my world    to my toy factory.
D#-------------------------------------------------------------------|
A#-------------------------------------------------------------------|
F#-------------------------------------------------------------------|
C#-------------------------------------------------0-----------------|
G#---5/6/5-[X2]---5-5x--5/6/5-[X2]---5-5x--3-3x----0-----------------|
D#---3/4/3--------3-3x--3/4/3--------3-3x--1-1x----------------------|






INSTRUMENTAL

D#-------------------------------------------------------------------|
A#-------------------------------------------------------------------|
F#-------------7--6--3-----------7--6/7/6----------------------------|
C#----7--8--7--5--4--1--7--8--7--5--4/5/4----------------------------|
G#----5--6--5-----------5--6--5--------------------------------------|
D#-------------------------------------------------------------------|

D#-------------------------------------------------------------------|
A#-------------------------------------------------------------------|
F#-------------7--6--3-----------7--6/7------------------------------|
C#----7--8--7--5--4--1--7--8--7--5--4/5--7---------------------------|
G#----5--6--5-----------5--6--5----------5---------------------------|
D#-------------------------------------------------------------------|

--- REPEAT INSTRUMENTAL

SOLO BACKING

D#-------------------------------------------------------------------|
A#-------------------------------------------------------------------|
F#-------------------------------------------------------------------|
C#--5---5--8--7---7--7--5---5--8--7---7--7---------------0x-0x-0x-0x-|
G#--3---3--6--5---5--5--3---3--6--5---5--5--5---3---3----0x-0x-0x-0x-|
D#------------------------------------------3---1---1----------------|

D#-------------------------------------------------------------------|
A#-------------------------------------------------------------------|
F#-------------------------------------------------------------------|
C#--5---8--7-8-7--7x-7x-7x-7x--7-8-7--7x-7x-7x-7x--------------------|
G#--3---6--5-6-5--5x-5x-5x-5x--5-6-5--5x-5x-5x-5x--------------------|
D#-------------------------------------------------------------------|

D#-------------------------------------------------------------------|
A#-------------------------------------------------------------------|
F#--------7-6-3------------------------------------------------------|
C#--7-8-7-5-4-1-7-8-7-5-3-5-3----------------------------------------|
G#--5-6-5-------5-6-5-3-1-3-1----------------------------------------|
D#-------------------------------------------------------------------|

No more...         on their knees ...   they are...       itís their turn...
D#-------------------------------------------------------------------|
A#-------------------------------------------------------------------|
F#-------------------------------------------------------------------|
C#--3-----------------------3----------------------------------------|
G#--1---------3-------------1---------3------------------------------|
D#------------1-----------------------1------------------------------|

--- REPEAT UP TO ďflying at zeroĒ

itís their turn...                                                 master...
D#-------------------------------------------------------------------|
A#-------------------------------------------------------------------|
F#-------------------------------------------------------------------|
C#-7-8-7-7x-7x-7x-7x-7-8-7-5-7-8-------------------------------------|
G#-5-6-5-5x-5x-5x-5x-5-6-5-3-5-6-5-6-5-5x-5x-5x-5x-5-6-5-5x-5x-5x-5x-|
D#-------------------------------3-4-3-3x-3x-3x-3x-3-4-3-3x-3x-3x-3x-|

are welcome...                     wonderland                          Iím the angel...
D#-------------------------------------------------------------------|
A#-------------------------------------------------------------------|
F#-------------------------------------------------------------------|
C#---------------0-0x-0x-0x-0x---------------------------------------|
G#-3-3x-3x-3x-3x-0-0x-0x-0x-0x-(3--5--6)-5-6-5-5x-5x-5-6-5-5x-5x-----|
D#-1-1x-1x-1x-1x---------------(1--3--4)-5-6-5-5x-5x-5-6-5-5x-5x-----|

welcome...                 my world                                          I come to 
bring you pain
D#-------------------------------------------------------------------|
A#-------------------------------------------------------------------|
F#-------------------------------------------------------------------|
C#---------------0-0x-0x-0x-0x---------------------------------------|
G#-3-3x-3x-3x-3x-0-0x-0x-0x-0x-(3--5--6)-5-6-5-5x-5x-5-6-5-5x-5x-----|
D#-1-1x-1x-1x-1x---------------(1--3--4)-5-6-5-5x-5x-5-6-5-5x-5x-----|

welcome...                 my world
D#-------------------------------------------------------------------|
A#-------------------------------------------------------------------|
F#-------------------------------------------------------------------|
C#---------------0----7/8/7-[X2]-7-7x-7/8/7-[X2]-5-7-8---------------|
G#-3-3x-3x-3x-3x-0----5/6/5------5-7x-7/8/7------3-5-6---------------|
D#-1-1x-1x-1x-1x-----------------------------------------------------|

D#-------------------------------------------------------------------|
A#-------------------------------------------------------------------|
F#-------------------------------------------------------------------|
C#------7/8/7-[X2]-7-7x----OUTRO TAB (unknown)-----------------------|
G#------5/6/5------5-7x----------------------------------------------|
D#-------------------------------------------------------------------|

/ = slide
0x = strum muted string with fred-blocking 0
() = deviation

Tab composed using my hearing and YouTuber "n3rb0"'s cover.
Tap to rate this tab
# A B C D E F G H I J K L M N O P Q R S T U V W X Y Z