Song name
# A B C D E F G H I J K L M N O P Q R S T U V W X Y Z

Avatar - Leaves From The Vine tab

Leaves from the vine, falling so slow;
|----------------------------------------------------|
|-5~--5-3-2~--5-5-3-2~----2~--2-0-----2-2-0----------|
|-----------------------2---------2~--------2~-------|
|----------------------------------------------------|
|----------------------------------------------------|
|----------------------------------------------------|
                       Like fragile tiny shells, drifting in the snow.

Little soldier boy, come marching home.
|----------------------------------------------------|
|-5-5--5-3-2~--5-5-3-2~----2~--2-0-----2--2--0-------|
|----------------------------------2~-----------2~---|
|----------------------------------------------------|
|----------------------------------------------------|
|----------------------------------------------------|
                          Brave soldier boy, comes marching home.
Tap to rate this tab
 
# A B C D E F G H I J K L M N O P Q R S T U V W X Y Z