Song name
# A B C D E F G H I J K L M N O P Q R S T U V W X Y Z

Avatar - Little Soldier Boy tab

Tab by vgking96
email: vgking96@gmail.com

Improved version of S.Thespian's tabs


 Leaves from the vine                Falling so slow
e|--------------------------------|----------------------------------------|
B|--------------------------------|----------------------------------------|
G|--------------------------------|----------------------------------------|
D|--------------------------------|----------------------------------------|
A|-7----7----5----4---------------|---7--7---5---4----2--------------------|
E|--------------------------------|----------------------------------------|


   Like fragile tiny shells            Drifting in the foam
e|--------------------------------|----------------------------------------|
B|--------------------------------|----------------------------------------|
G|--------------------------------|----------------------------------------|
D|--------------------------------|----------------------------------------|
A|--4-4----4-5-4------------------|-----4-4-----4---2-----0----------------|
E|--------------------------------|----------------------------------------|

   Little soldier boy                  Comes marching home
e|--------------------------------|----------------------------------------|
B|--------------------------------|----------------------------------------|
G|--------------------------------|----------------------------------------|
D|--------------------------------|----------------------------------------|
A|--7-7----7--5---4---------------|-----7---7---5---4---2------------------|
E|--------------------------------|----------------------------------------|

   Brave soldier boy                  Comes marching home
e|--------------------------------|----------------------------------------|
B|--------------------------------|----------------------------------------|
G|--------------------------------|----------------------------------------|
D|--------------------------------|----------------------------------------|
A|--4-----4-2-----0---------------|-----4------4-2-----0-------------------|
E|--------------------------------|----------------------------------------|
Tap to rate this tab
 
# A B C D E F G H I J K L M N O P Q R S T U V W X Y Z